top separator

Home

Forum

What's New

Submit a Tab

FAQ

Links

Contact Us

Link to Us

MetalTabs.com logo

Bands

0-9

A

B

C

D

E

F

G

H

I

J

K

L

M

N

O

P

Q

R

S

T

U

V

W

X

Y

Z

Search

What

Where
 

Illdisposed - "A Deathwork Orange" Guitar Tab

Plain Text Version
More Illdisposed Tabs

Hits: 2894
Rated: 5.00 out of 5 (1 vote)
Updated: 2004-02-29 13:06:11

 

By:

Daniil

sendpm.gif

email.gif

Important note
This tab is available online because we obtained explicit permission from Illdisposed or their label.


#----------------------------------PLEASE NOTE---------------------------------#
#This file is the author's own work and represents their interpretation of the #
#song. You may only use this file for private study, scholarship, or research. #
#Unless specified otherwise, this is NOT an official tab from the band members.#
#------------------------------------------------------------------------------#

  Visit MetalTabs.com for more metal tablature
  
ILLDISPOSED-A Deathwork Orange...
Four Depressive Seasons-1993
Transcribed by Daniil Laletin
e-mail: dlaletin@mail.ru
version 1.0 December 2003

All corrections are welcome.

 " - tremolo
 / - slide down
 \ - slide up
 . - palm mute

Riff 1                      Riff 2
|-----------------------|  |-------------------|
|-----------------------|  |-------------------|
|-----------------------|  |-------------------|
|-------4---------------|  |-------------------|
|-------2-2x--4---------|  |---4---4---4-----4-|
|-3p2p1---0x--222222222-|  |-2-2-2-2-2-2-232-2-|
                             .   .   .   ...


Riff 3
|---------------------------------------------------|
|---------------------------------------------------|
|---------------------------------------------------|
|---------------------------------------------------|
|-----2-----------33332222-----2--------------------|
|-0-0-0---11110000---------0-0-0---1111000033331111-|
  . .                      . .


Riff 4
|-----------------------------------|
|-----------------------------------|
|-----------------------------------|
|-----------------------------------|
|-------------------------------3-3-|
|-00000-00000-0101-00000-00000-0101-|
              ....             ....


Riff 3
|---------------------|
|---------------------|
|---------------------|
|-4----3----4----7--9-| gtr 1
|-2----1----2----5--7-|
|-2----1----2----5--7-|


gtr 2
* I'm not sure in this, becouse i'm too
  weak to tab this correctly
|---------|    |---------|    |---------|
|---------|    |---------|    |---------|
|---------|    |---------|    |---------|
|-9p8p6p5-|x 4 |-8p7p6p5-|x 4 |-9p8p6p5-|x 4
|---------|    |---------|    |---------|
|---------|    |---------|    |---------|

|-----------|    |-------------|
|-----------|    |-------------|
|-----------|    |-------------|
|-12p11p9p8-|x 2 |-14p13p11p10-|x 2
|-----------|    |-------------|
|-----------|    |-------------|







Riff 4a                    Riff 4b
|----------------------|  |----------------------------|
|----------------------|  |----------------------------|
|-------------4----4/5-|  |-------------4----3-------4-|
|-4----4\3----2----4/5-|  |-4----4\3----2----1-------2-|
|-2----2\1----2----2/3-|  |-2----2\1----2----1-------2-|
|-2----2\1-------------|  |-2----2\1-------------------|



Fill after death silence
|---------------------------------------------------|
|---------------------------------------------------|
|---------------------------------------------------|
|---------------------------------------------------|
|-5\4---5\4---5\4---5\4---5\4---5\4---5\4---5\4---5-|
|-3\2-0-3\2-0-3\2-0-3\2-0-3\2-0-3\2-0-3\2-0-3\2-0-3-|
      .     .     .     .     .     .     .     .


Riff 5
|----------------------------------------------------|
|----------------------------------------------------|
|----------------------------------------------------|
|----------------------------------------------------|
|--------------5--------------6--------------5-6-5-6-|
|-222222222222-3-222222222222-4-222222222222-3-4-3-4-|
  ............   ............   ............

|-------------------------------------------------|
|-------------------------------------------------|
|-------------------------------------------------|
|-------------------------------------------------|
|-----8-7x-7x-----8-7x-7x-5\4---5\4---5\4---5\4---|
|-555-6-5x-5x-555-6-5x-5x-3\2-0-3\2-0-3\2-0-3\2-0-|
  ...         ...             .     .     .     .


Riff 6                              Another fill
|-------------------------------|  |---------------|
|-------------------------------|  |---------------|
|-------------------------------|  |---------------|
|-------------------------------|  |-3-------------|
|-x-4/5\4/5\4/5---------6/7-6/7-|  |-1-4/5\4/5\4/5-|
|-x-2/3\2/3\2/3-2-2-2-2-4/5-4/5-|  |---2/3\2/3\2/3-|
                . . . .

Riff 7                              And yet another tiny fill
|-------------------------------|  |-----------------|
|-------------------------------|  |-----------------|
|-------------------------------|  |-----------------|
|-3-----------------------------|  |-2h3p2-----------|
|-1-4/5\4/5\4/5---------6/7-6/7-|  |-------3-3-2-2---|
|---2/3\2/3\2/3-2-2-2-2-4/5-4/5-|  |---------------1-|
                . . . .


Riff 8
|-----------------------------------------------------------------|
|-----------------------------------------------------------------|
|-----------------------------------------------------------------|
|-----------------2h3p2---------------------------2h3p2---------3-|
|-222-222-222-222-------3-3-2-2---333-333-333-333-------3-3-2-2---|
|-000-000-000-000---------------1-111-111-111-111-----------------|
                        . . . . .                       . . . .


Riff 9
|----------------------------------------------------------------|
|----------------------------------------------------------------|
|----------------------------------------------------------------|
|-2-------(2)-----2---------------(2)---------------------2----2-|gtr 1
|-2-------(2)-----2---------------(2)---------------------2----2-|
|-0-------(0)-----0---------------(0)---------------------0----0-|
|
|----------------------------------------------------------------|
|----------------------------------------------------------------|
|----------------------------------------------------------------|
|-2-------(2)---------------------------------------------2----2-|gtr 2
|-2-------(2)---------------------------------------------2----2-|
|-0-------(0)-----0000-0000-0000-0000-0000-0000-0000-0000-0----0-|


Riff 10
|-----------------------------------------------------|
|-----------------------------------------------------|
|-----------------------------------------------------|
|-----------------------------------------------------|
|-2-2-222-222-222-222-2-2-2-2-2-222-222-222-222-2-2-2-|
|-0-0-000-000-000-000-0-0-0-0-0-000-000-000-000-0-0-0-|

|-----------------------------------------------------|
|-----------------------------------------------------|
|-----------------------------------------------------|
|-----------------------------------------------------|
|-3-3-333-333-333-333-3-3-3-3-3-333-333-333-333-3-3-3-|
|-1-1-111-111-111-111-1-1-1-1-1-111-111-111-111-1-1-1-|



Riff 11             Riff 12
|---------------|  |----------------------------------|
|---------------|  |----------------------------------|
|---------------|  |----------------------------------|
|-9---8---------|  |----------------------------------|
|-7---6---6-----|  |-----5544------------5544---------|
|-7-------7---6-|  |-4433----554444334433----55444433-|


Riff 13          Riff 14
|------------|  |-------------------------------------------------|
|------------|  |-------------------------------------------------|
|-5--4-------|  |-------------------------------------------------|
|-3--2--5--4-|  |-------------------------------------------------|
|-3--2--3--2-|  |-----4-----4-----4-----4-----4-----4-----4-----4-|
|-------3--2-|  |-22222-22222-22222-22222-22222-22222-22222-22222-|



Riff 15                                        Riff 16
|------------------------------------------|  |---------------------|
|------------------------------------------|  |---------------------|
|------------------------------------------|  |----------------5--6-|
|------------------------------------------|  |-4-----2--3-----3--4-|
|-----------------------------333333444444-|  |-2-----2--1-----3--4-|
|-2222222222220000111111111111-------------|  |-2-----0--1----------|


Riff 17
|------------------------------------------|
|------------------------------------------|
|------------------------------------------|
|------------------------------------------|gtr 1
|-----------------------------333333444444-|
|-2222222222220000111111111111-------------|
|
|------------------------------------------|
|------------------------------------------|
|-----------------------------555555666666-|
|-4444444444442222333333333333-------------|gtr 2
|------------------------------------------|
|------------------------------------------|


Riff 18          Riff 19
|------------|  |------------|
|------------|  |------------|
|------------|  |------------|
|-5-----3--4-|  |-5-----7--4-|
|-3-----1--2-|  |-3-----5--2-|
|-3-----1--2-|  |-3-----5--2-|

  Visit MetalTabs.com for more metal tablature

bottom separator

Contact Us | Privacy Policy | Disclaimer | Legal Notice
Copyright © 2001-2014 MetalTabs.com. All Rights Reserved.