top separator

Home

Forum

What's New

Submit a Tab

FAQ

Links

Contact Us

Link to Us

MuSpy.com

MetalTabs.com logo

Bands

0-9

A

B

C

D

E

F

G

H

I

J

K

L

M

N

O

P

Q

R

S

T

U

V

W

X

Y

Z

Search

What

Where
 

Illdisposed - "Life Equals Zero (A Love Song)" Guitar Tab

Plain Text Version
More Illdisposed Tabs

Hits: 2833
Updated: 2004-02-29 12:15:50

 

By:

Daniil

sendpm.gif

email.gif

Important note
This tab is available online because we obtained explicit permission from Illdisposed or their label.


#----------------------------------PLEASE NOTE---------------------------------#
#This file is the author's own work and represents their interpretation of the #
#song. You may only use this file for private study, scholarship, or research. #
#Unless specified otherwise, this is NOT an official tab from the band members.#
#------------------------------------------------------------------------------#

  Visit MetalTabs.com for more metal tablature
  
ILLDISPOSED-Life Equals Zero (A Love Song)
Four Depressive Seasons-1993
Transcribed by Daniil Laletin
e-mail: dlaletin@mail.ru
version 1.0 December 2003

All corrections are welcome.

 " - tremolo
 / - slide down
 \ - slide up
 . - palm mute

All songs from this album has very sludge sound,
so, i apologies for any mistakes i did.
Sometimes it's very hard to hear anything.

Riff 1
|------------------------------------------------------------|
|------------------------------------------------------------|
|------------------------------------------------------------|
|----4---------------4-------------3---------------3---------|
|-4------5---4---5-------5---4--3------4---3---4-------4---3-|
|-4----4---4---4---4---4---4----3----3---3---3---3---3---3---|
     . . . . . . . . . . . . .     . . . . . . . . . . . . .

|------------------------------------------------------------|
|------------------------------------------------------------|
|------------------------------------------------------------|
|----4---------------4-------------3--------------5----------|
|-4------5---4---5-------5---4--3------4---3----6-----6---5--|
|-4----4---4---4---4---4---4----3----3---3---3--6---6---6----|
     . . . . . . . . . . . . .     . . . . . .    . . . . .

Play riff 1 two times, then:
|------------------------------|
|------------------------------|
|------------------------------|
|----4---------------4---------|
|-4------5---4---5-------5---4-|
|-4----4---4---4---4---4---4---|
     . . . . . . . . . . . . .

Riff 2
|--------------------------------------------------------------|
|--------------------------------------------------------------|
|--------------------------------------------------------------|
|----------------------------------------------------4-----3---|
|---------3---------------3---------------3------------5-----4-|
|-0-0-0-0-1p0-0-0-0-0-0-0-1p0-0-0-0-0-0-0-1p0-0-0--0-----0-----|

|--------------------------------------------------------------|
|--------------------------------------------------------------|
|--------------------------------------------------------------|
|----------------------------------------------------4-----3---|
|---------3---------------3---------------3------------5-----4-|
|-0-0-0-0-1p0-0-0-0-0-0-0-1p0-0-0-0-0-0-0-1p0-0-0--0-----0-----|

|-----------------------------------------------------------|
|-----------------------------------------------------------|
|-----------------------------------------------------------|
|---------------4---------------4---------------4----4----3-|
|---------------2---------------2---------------2-----------|
|-1-1-1-1-1-1-1---1-1-1-1-1-1-1---1-1-1-1-1-1-1---11---11---|
  . . . . . . .   . . . . . . .   . . . . . . .

Play riff 2 two times, then:
|--------------------------------------------------------------|
|--------------------------------------------------------------|
|--------------------------------------------------------------|
|----------------------------------------------------4-----3---|
|---------3---------------3---------------3------------5-----4-|
|-0-0-0-0-1p0-0-0-0-0-0-0-1p0-0-0-0-0-0-0-1p0-0-0--0-----0-----|


Riff 3
|------------------------------------------------------------------|
|------------------------------------------------------------------|
|------------------------------------------------------------------|
|-----5555----------------------------5555--------------------5555-|
|---------666655553333555566665555--------66665555333355556666-----|
|-3333----------------------------3333-----------------------------|

|------------------------------------------------------------------|
|------------------------------------------------------------------|
|------------------------------------------------------------------|
|-----4444----------------------------4444--------------------4444-|
|---------555544442222444455554444--------55554444222244445555-----|
|-2222----------------------------2222-----------------------------|


Riff 4
|------------------------------------------------------------------|
|------------------------------------------------------------------|
|------------------------------------------------------------------|
|-----9999----------------------------9999101099997777-------------|
|---------1010999977779999101099997777----------------9999---------|
|-7777----------------------------------------------------88887777-|

|------------------------------------------------------------------|
|------------------------------------------------------------------|
|------------------------------------------------------------------|
|-----8888----------------------------8888999988886666----88889999-|
|---------9999888866668888999988886666----------------8888---------|
|-6666-------------------------------------------------------------|


Riff 5
|-------------------------------------------------------------------|
|-------------------------------------------------------------------|
|-------------------------------------------------------------------|
|-------------------------------------------------------------------|
|----------------------------------2-2-2-2-2-2-2-2------------------|
|-101010101010101010-0-0-0-0-0-0-0-0-0-0-0-0-0-0-0-1212121212121212-|
 (it's 1 & 0, not 10)                              (it's 1 & 2, not 12)

|--------------------------------------------------|
|--------------------------------------------------|
|--------------------------------------------------|
|--------------------------------------------------|
|-2-2-2-2-2-2-2-2-2-2-2-2-2-2-2-2------------------|
|-0-0-0-0-0-0-0-0-0-0-0-0-0-0-0-0-1212121212121212-|

|--------------------------------------------------|
|--------------------------------------------------|
|--------------------------------------------------|
|--------------------------------------------------|
|-2-2-2-2-2-2-2-2-2-2-2-2-2-2-2-2------------------|
|-0-0-0-0-0-0-0-0-0-0-0-0-0-0-0-0-1212121212121212-|

|---------------------------------|
|---------------------------------|
|---------------------------------|
|---------------------------------|
|-2-2-2-2-2-2-2-2-2-2-2-2-2-2-2-2-|
|-0-0-0-0-0-0-0-0-0-0-0-0-0-0-0-0-|


Riff 6
|-----------------------------------------------------------|
|-----------------------------------------------------------|
|-----------------------------------------------------------|
|-----------------------------------------------------------|
|-6----6----6---5----5----5---6----6----6---9-------8-------|
|-4-44-4-44-4-4-3-33-3-33-3-3-4-44-4-44-4-4-7-7-7-7-6-6-6-6-|


Riff 7
|------------------------------------------------------------------|
|------------------------------------------------------------------|
|------------------------------------------------------------------|
|------------------------------------------------------------------|
|------------------------------------------------------------------|
|-4444444444444444333333333333333344444444444444447777777766666666-|


Riff 8                                Riff 9
|---------------------------------|  |---------------------------------|
|---------------------------------|  |---------------------------------|
|---------------------------------|  |---------------------------------|
|---------------------------------|  |---------------------------------|
|---------------------------------|  |---------------------------------|
|-5-4-5-4-5-4-5-444-4-444-444-444-|  |-2-3-2-3-2-3-3-222-2-222-222-222-|



Riff 10
|--------------------------------------------------------------|
|--------------------------------------------------------------|
|--------------------------------------------------------------|
|--------------------------------------------------------------|
|-----------------3333333322222222----------------33333333-3-4-|
|-3333333300000000----------------3333333300000000---------1-2-|
                                                           . .
|--------------------------------------------------------------|
|--------------------------------------------------------------|
|--------------------------------------------------------------|
|--------------------------------------------------------------|
|-----------------3333333322222222-----------------3-4-5-4-3-2-|
|-3333333300000000----------------3333333300000000-1-2-3-2-1-0-|
                                                   . . . . . .


Riff 11a
|-----------------------------------------------|
|-----------------------------------------------|
|-----------------------------------------------|
|--------------------9~----------7~-------------|
|-7-9-10-7~---7-9-10------7-9-10------7-10-9-7~-|
|-----------------------------------------------|


Riff 11b
|--------------------------------------------------------------|
|--------------------------------------------------------------|
|--------------------------------------------------------------|
|-------------------------9~---------------7~---------------5~-|
|-7-9-10-7~--------7-9-10-----------7-9-10-----------7-10-9-7~-|
|------------0-0-0------------0-0-0------------0-0-0-----------|


Riff 12
|-----------------------------------------|
|-----------------------------------------|
|-----------------------------------------|
|-----------------------------------------|
|-2222-2222-2222-2222-5555-5555-5555-5555-|
|-0000-0000-0000-0000-3333-3333-3333-3333-|


Riff 13
|--------|
|--------|  You must tremolo this notes in different timing,
|--------|  listeng the song.
|--------|
|-----7"-|
|-0"-----|

  Visit MetalTabs.com for more metal tablature

bottom separator

Contact Us | Privacy Policy | Disclaimer | Legal Notice
Copyright © 2001-2014 MetalTabs.com. All Rights Reserved.