top separator

Home

Forum

What's New

Submit a Tab

FAQ

Links

Contact Us

Link to Us

MuSpy.com

MetalTabs.com logo

Bands

0-9

A

B

C

D

E

F

G

H

I

J

K

L

M

N

O

P

Q

R

S

T

U

V

W

X

Y

Z

Search

What

Where
 

Zyklon - "Transcendental War - Battle Between Gods" Guitar Tab

Plain Text Version
More Zyklon Tabs

Hits: 4576
Rated: 4.60 out of 5 (5 votes)
Updated: 2004-02-29 11:50:31

 

Important note
This tab is available online because we obtained explicit permission from Zyklon or their label.


#----------------------------------PLEASE NOTE---------------------------------#
#This file is the author's own work and represents their interpretation of the #
#song. You may only use this file for private study, scholarship, or research. #
#Unless specified otherwise, this is NOT an official tab from the band members.#
#------------------------------------------------------------------------------#

  Visit MetalTabs.com for more metal tablature
  
Band: Zyklon
Album: World OV worms
Song: Transcendental War-Battle Between Gods
Transcribed by: Henry Casas IV
Email: BaneOfExistance@aol.com

.  - Palm mute           /  - slide up to
\  - Slide down to       ~  - vibrato
h  - hammer on           b  - Bend
p  - pull off            Suffixes for bend
t  - tap                 f  - full bend    h - half bend
Ph - pinched harmonic    q  - quarter bend t - tap bend
*  - See comment         ^  - Hold bend    r release bend
x  - Stuccatto           ~  - vibrato bend
,  - Slight palm mute    () - ghost note, sustained note
"  - Tremolo note        <> - Trill

Tuning: DGCFAD
Riff 1                                             End 1  End 2

D|------------------------------------------------|-----|------|
A|------------------------------------------------|-----|------|
F|------------------------------------------------|-----|------|
C|-5-----8---------------5-----8---9-----8--------|-8---|-Ph---|
G|-3-----6------555/75/7-3-----6-7-7-----6--------|-6---|-6~---|
D|--00000-00000-333/53/5-00000--5--00000-00000---|-----|------|
                      
Riff 2 Guitars 1 and 2

D|---------------------------------------|
A|---------------------------------------|
F|---------------------------------------|
C|------------------------------7-------|
G|-5---4---5---4----5---4-578---------|
D|--000-000-000-14---000-----------------|
            
Riff 2 Guitar 2, 2nd time

D|---------------------------------------|
A|---------------------------------------|
F|---------------------------------------|
C|-----------------------------------12-|
G|-10---9---109-----10---9-101213----|
D|---000-000000-79---000---------------|
              
Riff 3

D|-------------------------------------------------|
A|-------------------------------------------------|
F|-------------------------------------------------|
C|---------------------------------------------5--|
G|-4----3----3----4----3-4----3----3----4----3----|
D|--0000-0000-0000-0000-1-0000-0000-0000-0000-----|
              



Riff 3 Variation

D|-------------------------------------------------|
A|-------------------------------------------------|
F|-------------------------------------------------|
C|----------------------Ph----------------------5-|
G|4----3----3----4----3-3~-4----3----3----4----3---|
D|-0000-0000-0000-0000------0000-0000-0000-0000----|
               

Riff 4				Riff 4 Variation

D|--------------------|-----------------------|
A|-----------20-----|-----------------------|
F|-------43----3---|--------- 43-32---|
C|-545-------------|-- 545--------------|
G|--------------------|--------------1-------|
D|--------------------|-----------------------|

Riff 5

D|-----------------------------------------------------------------|
A|-----------------------------------------------------------------|
F|-----------------------------------------------------------------|
C|----------------10---------------9-------7-------6---------------|
G|------787-----78-------787-----78------78------78-------7---86-|
D|-00000---00000----00000---00000---00000---00000---00000--578-----|
                        

Riff 5 Variation

D|---------------------------------------------------------------------|
A|--------------------------------------------------------------Ph-----|
F|-----------------------------------10-------------------------Br-----|
C|----------------10-------------------------7--------6----------8-----|
G|------787-----78-------787-------78------78-------78------7---8------|
D|-00000---00000----00000-----00000---00000---000000---00000-578-------|
                         

Riff 6

D|------------------|
A|------------------|
F|------------------|
C|------------------|
G|--69107-69-33----|
D|-0-0----0-0-----|
   .  .    .  .

There is variations of this riff that have 2 or 3 muted open Ds,
listen to the song to find them.

Be glad that I tabbed this, so NO song structure for you.
And for the solo, just make up some stuff ;).
If you have any suggestions or comments, email me.
Anyway, have fun playing this awesome song \m/>_<\m/

  Visit MetalTabs.com for more metal tablature

bottom separator

Contact Us | Privacy Policy | Disclaimer | Legal Notice
Copyright © 2001-2014 MetalTabs.com. All Rights Reserved.