top separator

Home

Forum

What's New

Submit a Tab

FAQ

Links

Contact Us

Link to Us

MetalTabs.com logo

Bands

0-9

A

B

C

D

E

F

G

H

I

J

K

L

M

N

O

P

Q

R

S

T

U

V

W

X

Y

Z

Search

What

Where
 

Arckanum - "Groemelse Ok Voe" Guitar Tab

Plain Text Version
More Arckanum Tabs

Hits: 4815
Rated: 5.00 out of 5 (1 vote)
Updated: 2004-02-08 09:27:12

 

Important note
This tab is available online because we obtained explicit permission from Arckanum or their label.


#----------------------------------PLEASE NOTE---------------------------------#
#This file is the author's own work and represents their interpretation of the #
#song. You may only use this file for private study, scholarship, or research. #
#Unless specified otherwise, this is NOT an official tab from the band members.#
#------------------------------------------------------------------------------#

  Visit MetalTabs.com for more metal tablature
  
Song:   Groemelse Ok Voe
Artist:   Arckanum
Album:  Kostogher
Transcribed by:  Tagir Afandin  ( tagir_@one.lv )

This is my first metal tab, so it may have mistakes.


Tuning: Standard

Riff 1 (Guitar1) 1x
|-------------------------------|
|-------------------------------|
|-------------------------------|
|--5------5------4------4-------|
|--3---5~-3---5~-2---5~-2----5~-|
|-------------------------------|

Riff 2 (Guitar2) 1x
|------------------------------------------|
|------------------------------------------|
|----------------------9-7-9-7-6-66666666--|
|--7~--5~--5-3-2~---5~---------------------|
|------------------------------------------|
|------------------------------------------|

Riff 3 (G2) 2x                       I don't know what guitar 1 but maybe it's riff 1.
|----------------------------------------------------------|
|----------------------------------------------------------|
|------------------------------------99977799977766666666--|
|-77777777555555555533322222222555555----------------------|
|----------------------------------------------------------|
|----------------------------------------------------------|

Riff 4 (G2)
|------------------|
|------------------|
|-999777999101010--|                 I don't know how many tames
|------------------|                 riffs 4 and 5 are played.
|------------------|
|------------------|

Riff 5 (G2)
|------------------------------|
|------------------------------|
|-999777999101010121212101010--|
|------------------------------|
|------------------------------|
|------------------------------|

Riff 6 (G2) 2x
|---------------------------|
|---------------------------|
|-777755557777888877778888--|
|---------------------------|
|---------------------------|
|---------------------------|

Riff 7 (G2) 2x
|-------------------|
|-------------------|
|-1010101077779999--|
|-------------------|
|-------------------|
|-------------------|

Riff 8 (G2) 1x
|---------------------------|
|---------------------------|
|-555577778888555577775555--|
|---------------------------|
|---------------------------|
|---------------------------|

Riff 9 (G2) 4x
|-------------------|
|-------------------|
|-------------------|
|-------------------|
|-5---7---5--4-5-4--|
|-------------------|

Riff 10 (G2) 4x
|--------------------|
|--------------------|
|--------------------|
|--------------------|
|-5---4---5-4-7-5-4--|
|--------------------|

Riff 11 (G1)  This main riff guitar 1 plays untill riff 18.
|--------------------------------------|
|--------------------------------------|
|--------------------------------------|
|--------------------------------------|
|--5--7-9-7~--5--7-9---5--7-9-5-7-9-7~-|
|--------------------------------------|

Riff 12 (G2) 1x
|----------------------------|
|----------------------------|
|----------------------------|
|--5--7-9-7---5--7-9-10-9-7--|
|----------------------------|
|----------------------------|

Riff 13 (G2) 1x
|-----------------------------|
|-----------------------------|
|-----------------------------|
|--5--7-9-10-9-7-5-4-5-7-9-10-|
|-----------------------------|
|-----------------------------|

Riff 14 (G2)                   2x
|-----------------------------|--------------------------|
|-----------------------------|--------------------------|
|-----------------------------|--------------------------|
|--5--7-9-10-9-7-5-4-5-7-9-10-|-3-3-3-2-2-2-3-3-3-1-1-1--|
|-----------------------------|--------------------------|
|-----------------------------|--------------------------|

Riff 15 (G2)      3x
|----------------|---------------|
|----------------|---------------|
|----------------|---------------|
|--5--7-9-12~-9~-|-10~-9~-7~-5~--|
|----------------|---------------|
|----------------|---------------|

Riff 16 (G2) 2x
|-------------------|
|-------------------|
|-------------------|
|--5--7-9-7--5-3-2--|
|-------------------|
|-------------------|

Riff 17 (G2) 2x
|---------------------------|
|---------------------------|
|---------------------------|
|--5--7-9-7--7-9-10-7-9-10--|
|---------------------------|
|---------------------------|

Riff 18 (G1 and 2) 6x
|------------------------|
|------------------------|
|------------------------|
|--5--7-9-5-7-9-7--7--6--|
|------------------------|
|------------------------|

Riff 19 (G1) 2x
|------------------------|
|------------------------|
|------------------------|
|--5--7-9-5-7-9-7--------|
|------------------------|
|------------------3--2--|

Any corrections are welkome !

  Visit MetalTabs.com for more metal tablature

bottom separator

Contact Us | Privacy Policy | Disclaimer | Legal Notice
Copyright © 2001-2014 MetalTabs.com. All Rights Reserved.