top separator

Home

Forum

What's New

Submit a Tab

FAQ

Links

Contact Us

Link to Us

MetalTabs.com logo

Bands

0-9

A

B

C

D

E

F

G

H

I

J

K

L

M

N

O

P

Q

R

S

T

U

V

W

X

Y

Z

Search

What

Where
 

December - "Vertigo" Guitar Tab

Plain Text Version
More December Tabs

Hits: 3136
Rated: 5.00 out of 5 (1 vote)
Updated: 2004-02-08 08:11:01

 

Important note
We did our best to reach December and ask for their permission to publish this tab. Unfortunately they did not respond to our requests or we could not find a way to contact them. This tab is available online until December tells us to take it down.


#----------------------------------PLEASE NOTE---------------------------------#
#This file is the author's own work and represents their interpretation of the #
#song. You may only use this file for private study, scholarship, or research. #
#Unless specified otherwise, this is NOT an official tab from the band members.#
#------------------------------------------------------------------------------#

  Visit MetalTabs.com for more metal tablature
  
Tab for "Vertigo"
Artist: december- guitarist: julian peach
Tabber: John Sura
Tuning: Drop C

F.Y.I.- the harmonic in verse 2 was verified by Mr. Peach, so it is correct.

Feel free to email me with any friendly suggestions! xskinlab1x@hotmail.com

p= pull off
.= palm mute
\= slide down
/=slide up
NOTE!: This tab does not have the muffled part...send suggestions


Intro:
D-------------------------------------------| *I think the 3 fours are actually 2 triplets,
A-------------------------------------------|  but i cant tell..
F--3-3-3-3-3-3--6-6-6-6-6-6--3333-3333-3333-|
C--1-1-1-1-1-1--4-4-4-4-4-4--1111-1111-1111-|
G--1-1-1-1-1-1--4-4-4-4-4-4-----------------|
C-------------------------------------------|

-Play intro 3x

This is played sort of blended together into one lick.
Bridge
D-------------|
A-------------|
F--------4\3--|
C--4p3-0-2\1--|
G--4p3-0-2\1--|
C--4p3-0------|
       .
Verse 1
D--------------------------------------|
A--------------------------------------|
F--3333-3333--3333--3333-----------4-4-|
C--1111-1111--1111--1111-----------2-2-|
G--------------------------0-4p3-0-2-2-|
C--------------------------0-4p3-0-----|
                           .     .
-Play verse 1 twice, but 2nd time without the ending

Verse 2							   Then in b/w end time (4 is harmonic)
D----------------------------------------------------------|	D-----------|
A----------------------------------------------------------|    A-----------|
F---------------------------------------5-5-----5-5-----5--|	F-----------|
C---------------------------------------3-3-----3-3-----3--|	C--44444444-|
G---------------------------------------3-3-----3-3-----3--|	G-----------|
C--1-0-0-0-2-0-0-0-1-0-0-0-2-0-0-0--0-0-----0-0-----0-0----|	C-----------|
                                    . .     . .

-Play verse 2 4x with the harmoincs in between the 2nd and 3rd time

Bridge
D-------------------------------------|
A-------------------------------------|
F--1-1-1-1--1-1-1-1--1-1-1-1--1-1-1-1-|
C--3-3-3-3--3-3-3-3--3-3-3-3--3-3-3-3-|
G-------------------------------------|
C-------------------------------------|

-Play verse 2 again 4x with harmonic

Verse 3
D-----------------------------------------------------------------------------------
A-----------------------------------------------------------------------------------
F--------4-4--------------------------------4-4---------------------------------4-4-
C--4p3---2-2--------------------------4p3---2-2---------------------------4p3---2-2-
G--4p3-0-2-2--0h1-1-1-0h1-1-1-0h1-1-0-4p3-0-2-2-1-0-0-0-2-0-0-0-1-0-0-0-0-4p3-0-2-2-
C--4p3-0------0h1-1-1-0h1-1-1-0h1-1-0-4p3-0-----1-0-0-0-2-0-0-0-1-0-0-0-0-4p3-0-----
       .                            .     .     . . . . . . . . . . . . .
  .

con't verse 3
D----------------------------------------------------------------|
A----------------------------------------------------------------|
F----------------------------------4-4---------------------------|
C----------------------------4p3---2-2---------------------------|
G--0h1-1-1-0h1-1-1-0h1-1-1-1-4p3-0-2-2--1-0-0-0-2-0-0-0-1-0-0-0--|
C--0h1-1-1-0h1-1-1-0h1-1-1-1-4p3-0------1-0-0-0-2-0-0-0-1-0-0-0--|
                                 .      . . . . . . . . . . . .

-Play verse 3

-Play verse 2 4x without bridge

Verse 4       (let ring)
D-------------2--------------------------------|
A-------------1--------------------------------|
F-------------0--------------4-4-----4-4-----4-|
C--0-------------------------2-2-----2-2-----2-|
G--0---------------------0-0-2-2-0-0-2-2-0-0-2-|
C--0---------------------0-0-----0-0-----0-0---|
   (let ring)            . .     . .     . .

-Play verse 4 4x

Verse 5
D-----------------------------------------------------------|
A-----------------------------------------------------------|
F-----------------------------------------------------------|
C-----------------------------------------------------------|
G--3p2-0-3-2-3-2p1-0-1-1-2-3p2-0-3-0-3-2p1-0-2--------------|
C------0-3-2-3-----0-1-1-2-----0-3-0-3-----0-2--1-1-1-2-2-2-|
       . . . .     . . . .     . . . .     . .

-Play verse 5 4x then...
                            after 2x, play this 2x, then go back to 1st one
and play once.
D--------------------------|	D--------------------------------|
F--------------------------|	A--------------------------------|
A--------------------------|	F--5-4-----4-3----5-4-----4-3----|
C--------------------------|	C--3-2-----2-1----3-2-----2-1----|
G--3-2---2-1---3-2---2-1---|	G--3-2--3--2-1--1-3-2--3--2-1--1-|
C------3-----1-----3-----1-|    C-------3-------1------3-------1-|

-play verse 5 4x

Play this once
D-----------------|
A-----------------|
F--4\---4\---4\---|
C--4\---4\---4\---|
G--2\---2\---2\---|
C--2\---2\---2\---|

**Go back and play Verse 2 4X, but with and extra chord (like this)

D-----------------------------------|
A-----------------------------------|
F------5-5-------5-5-------5-5------|
C------3-3-------3-3-------3-3------|
G-0-0--3-3--0-0--3-3--0-0--3-3--0-0-|
C-0-0-------0-0-------0-0-------0-0-|
  . .       . .       . .       . .

Play verse 3 a few times...then comes the muffled part to close which is not
tabbed..sorry!!

  Visit MetalTabs.com for more metal tablature

bottom separator

Contact Us | Privacy Policy | Disclaimer | Legal Notice
Copyright © 2001-2014 MetalTabs.com. All Rights Reserved.