top separator

Home

Forum

What's New

Submit a Tab

FAQ

Links

Contact Us

Link to Us

MuSpy.com

MetalTabs.com logo

Bands

0-9

A

B

C

D

E

F

G

H

I

J

K

L

M

N

O

P

Q

R

S

T

U

V

W

X

Y

Z

Search

What

Where
 

Alkonost - "war is closed by us" Guitar Tab

Plain Text Version
More Alkonost Tabs

Hits: 4310
Rated: 4.33 out of 5 (3 votes)
Updated: 2004-02-01 13:44:41

 

By:

Darkenelf

sendpm.gif

email.gif

Important note
This tab is available online because we obtained explicit permission from Alkonost or their label.


#----------------------------------PLEASE NOTE---------------------------------#
#This file is the author's own work and represents their interpretation of the #
#song. You may only use this file for private study, scholarship, or research. #
#Unless specified otherwise, this is NOT an official tab from the band members.#
#------------------------------------------------------------------------------#

  Visit MetalTabs.com for more metal tablature
  
Band: Alkonost
Album: Alkonost
Song: War is closed by us
Tabbed by: Martijn Wietsma
Tab date: 04-01-2004
Email: northerland@yahoo.co.uk

Standard E Tuning

/ = forward slide
\ = backward slide
h = hammer
p = pick
. = palm mute
~ = pull string up
^ = half a second silence

riff A (intro solo)
|----12-10-12-13-12-------10--8-7-------------------------------|
|-10----------------13-10----------10-8/10----------------------|
|---------------------------------------------------------------|
|---------------------------------------------------------------|
|---------------------------------------------------------------|
|---------------------------------------------------------------|
|---------------------------------------------------------------|
							(1x)
riff B (solo 2)
|-12------12-10-12-13-12-------10-8-7---------------------------|
|----10~-----------------13-10---------10-8/10------------------|
|---------------------------------------------------------------|
|---------------------------------------------------------------|
|---------------------------------------------------------------|
|---------------------------------------------------------------|
|---------------------------------------------------------------|
							(3x)
riff C (acoustic riff) (0:36)
|--------0---------------------0--------------------------------|
|-3-3--3---3-1--3-3-----3-3--3----3-1--3-3----------------------|
|---------------------------------------------------------------|
|---------------------------------------------------------------|
|---------------------------------------------------------------|
|---------------------------------------------------------------|
|---------------------------------------------------------------|
							(2x)
|---------------------------------------------------------------|
|---------------------------------------------------------------|
|-2-2--2-4--2-0--2-2-----2-2--2-4--2-0--2-2---------------------|
|---------------------------------------------------------------|
|---------------------------------------------------------------|
|---------------------------------------------------------------|
|---------------------------------------------------------------|
							(1x)
|--------0---------------------0--------------------------------|
|-3-3--3---3-1--3-3-----3-3--3----3-1--3-3----------------------|
|---------------------------------------------------------------|
|---------------------------------------------------------------|
|---------------------------------------------------------------|
|---------------------------------------------------------------|
|---------------------------------------------------------------|
							(1x)
								(4x)
riff D (2:13)
|---------------------------------------------------------------|
|---------------------------------------------------------------|
|---------------------------------------------------------------|
|---------------------------------------------------------------|
|------------5/7/9--------------5/7/9--------------5/7/9--------|
|-7-----7-7--3/5/7---7-----7-7--3/5/7---5-----5-5--3/5/7--------|
|-5-5-5-5-5----------5-5-5-5-5----------3-3-3-3-3---------------|
    . .                . .                . .

|---------------------------------------------------------------|
|---------------------------------------------------------------|
|---------------------------------------------------------------|
|---------------------------------------------------------------|
|------------7-5--5\4-------------------------------------------|
|-7-----7-7--5-3--3\2-\7----------------------------------------|
|-5-5-5-5-5-----------\5----------------------------------------|
    . .							(4x)

riff E (solo 3) (2:48)
|-12-----12-10---------10h12--10-12h13p12--10-----------10------|
|----10---------13-13p------------------------13p12h13----------|
|---------------------------------------------------------------|
|---------------------------------------------------------------|
|---------------------------------------------------------------|
|---------------------------------------------------------------|
|---------------------------------------------------------------|

|--------------------10-10h-------------------------------------|
|-13p12p10-10-12-13---------13p12p10----------------------------|
|---------------------------------------------------------------|
|---------------------------------------------------------------|
|---------------------------------------------------------------|
|---------------------------------------------------------------|
|---------------------------------------------------------------|
							(4x)
riff F (3:24)
|---------------------------------------------------------------|
|---------------------------------------------------------------|
|---------------------------------------------------------------|
|---------------------------------------------------------------|
|---------------------------------------------------------------|
|-7\5-7-----7---5\3-3-5-----5---7\5-7-----7---5\3-3-5-----5-----|
|-5\3-5-555-5---3\1-1-3-333-3---5\3-5-555-5---3\1-1-3-333-3-----|
        ...             ...           ...             ...
							(4x)
repeat riff A 4x
repeat riff E 4x
repeat riff F 4x
repeat riff A+F 4x
repeat riff D 4x

riff G (chords) (lead is missing)
|---------------------------------------------------------------|
|---------------------------------------------------------------|
|---------------------------------------------------------------|
|---------------------------------------------------------------|
|------7-----------------------7--------------------------------|
|-5/7--5--7----7----7-----5/7--5--7----5----5-------------------|
|-3/5-----5-55-5-55-5-----3/5-----5-55-3-33-3-------------------|
            ..   ..                 ..   ..		(4x)

riff H (keyboard riff) (6:06)

repeat riff G 4x (till end of song)

  Visit MetalTabs.com for more metal tablature

bottom separator

Contact Us | Privacy Policy | Disclaimer | Legal Notice
Copyright © 2001-2014 MetalTabs.com. All Rights Reserved.