top separator

Home

Forum

What's New

Submit a Tab

FAQ

Links

Contact Us

Link to Us

MetalTabs.com logo

Bands

0-9

A

B

C

D

E

F

G

H

I

J

K

L

M

N

O

P

Q

R

S

T

U

V

W

X

Y

Z

Search

What

Where
 

Suffocation - "Human Waste" Guitar Tab

Plain Text Version
More Suffocation Tabs

Hits: 4841
Rated: 3.18 out of 5 (11 votes)
Updated: 2004-02-01 13:03:30

 

By:

Chris Rezendes

sendpm.gif

email.gif

Important note
This tab is available online because we obtained explicit permission from Suffocation or their label.


#----------------------------------PLEASE NOTE---------------------------------#
#This file is the author's own work and represents their interpretation of the #
#song. You may only use this file for private study, scholarship, or research. #
#Unless specified otherwise, this is NOT an official tab from the band members.#
#------------------------------------------------------------------------------#

  Visit MetalTabs.com for more metal tablature
  
==========================================================================
Song: Human Waste
Artist: Suffocation
Album: Human Waste (1993)

Tabbed by Chris Rezendes (dudemcrude@yahoo.com)
Date started tab: I don't remember, must have forgotten to write it down
Date finished tab: 10/19/03

Tuning: D
Copy: Second (First was in wrong tuning, many wrong riffs as well)

Notation Key
~: vibrato
^: bend
.: palm mute
r: release
t: trill
p: pull-off
h: hammer-on
x: ghost note
/: slide up
\: slide down

Comments: I tabbed this out a long time ago in Dropped D, because at the
time I probably thought they were playing in dropped D or maybe I was just
too lazy to tune to D.  At any rate, it wasn't exactly a top notch tab, but
this one is very close.  It's bound to have a few mistakes, and if you
notice any, I'd greatly appreciate it if you would point itout to me so I
can fix it.  Later.
============================================================================

Fig. 1 x1
e|--------------------|
B|--------------------|
G|--------------------|
D|----6-5---5-4-------|
A|----4-3---3-2--5-3--|
E|--0-----0------3-1--|

Riff 1A x1
    Guitar 1
  e|-----------------------------------|---------------------------------|
  B|-----------------------------------|---------------------------------|
  G|-----------------------------------|---------------------------------|
  D|-----------------------------------|------------------------------3--|
  A|--------------------------------3--|------------------------------3--|
  E|--0-0-000-0-0-000-3-0-2-0-3-0-2----|--0-0-000-0-0-000-5-7-3-5-2-3-1--|

    Guitar 2
  e|-----------------------------------|---------------------------------|
  B|-----------------------------------|---------------------------------|
  G|-----------------------------------|---------------------------------|
  D|-----------------------------------|---------------------------------|
  A|-----------------------------------|---------------------------------|
  E|-----------------------------------|---------------------------------|

    Guitar 1
  e|-----------------------------------|---------------------------------|
  B|-----------------------------------|---------------------------------|
  G|-----------------------------------|---------------------------------|
  D|-----------------------------------|--------------------------5-4-3--|
  A|--------------------------------3--|------------------3-4-5-2--------|
  E|--0-0-000-0-0-000-3-0-2-0-3-0-2----|--0-0-000-0-0-000----------------|

    Guitar 2
  e|-----------------------------------|---------------------------------|
  B|-----------------------------------|---------------------------------|
  G|--------------------------------5--|---------------------------------|
  D|--2---------------5---4---5---4-5--|--2-----------------------5-4-3--|
  A|--2---------------5---4---5---4-3--|--2---------------3-4-5-2--------|
  E|--0---------------3---2---3---2----|--0------------------------------|

Riff 1B x1
e|-----------------------------------|---------------------------------|
B|-----------------------------------|---------------------------------|
G|-----------------------------------|---------------------------------|
D|-----------------------------------|------------------------------3--|
A|--------------------------------3--|------------------------------3--|
E|--0-0-000-0-0-000-3-0-2-0-3-0-2----|--0-0-000-0-0-000-5-7-3-5-2-3-1--|

e|-----------------------------------|---------------------------------|
B|-----------------------------------|---------------------------------|
G|-----------------------------------|---------------------------------|
D|-----------------------------------|--------------------------5-4-3--|
A|--------------------------------3--|------------------3-4-5-2--------|
E|--0-0-000-0-0-000-3-0-2-0-3-0-2----|--0-0-000-0-0-000----------------|

            TIME- 0:33

Riff 2A x1
    Guitar 1
  e|-----------------------------------|----------------------------------|
  B|-----------------------------------|----------------------------------|
  G|-----------------------------------|----------------------------------|
  D|-----------------------------------|----------------------------------|
  A|------555--------------------------|----------------------------------|
  E|--222-----222-333-111-444-333-111--|--222222-333-555-111-222-444-222--|

    Guitar 2
  e|-----------------------------------|----------------------------------|
  B|-----------------------------------|----------------------------------|
  G|-----------------------------------|----------------------------------|
  D|-----------------------------------|--4----------------3---4---6---4--|
  A|-----------------------------------|--4----------------3---4---6---4--|
  E|-----------------------------------|--2----------------1---2---4---2--|

Riff 2B x3
e|-----------------------------------|----------------------------------|
B|-----------------------------------|----------------------------------|
G|-----------------------------------|----------------------------------|
D|-----------------------------------|----------------------------------|
A|------555--------------------------|----------------------------------|
E|--222-----222-333-111-444-333-111--|--222222-333-555-111-222-444-222--|

            TIME- 0:41

Fig. 2 x1
e|--------------------------|-----------------------------------|
B|--------------------------|-----------------------------------|
G|--------------------------|-----------------------------------|
D|-----7--------------------|-----------------------------------|
A|--4--5--4--5--3--6--5--3--|-----------------------------------|
E|--2-----2--3--1--4--3--1--|--5-6-4-6-4-5-3-5-3-4-2-4-2-3-1-3--|

e|--------------------------|-------------------------------------|
B|--------------------------|------------------------------2h3p2--|
G|--------------------------|----------------------2-1-2-3--------|
D|-----7--------------------|--------------2-1-2-3----------------|
A|--4--5--4--5--3--6--5--3--|------2-1-2-3------------------------|
E|--2-----2--3--1--4--3--1--|--2-3--------------------------------|

e|--------------------------|-----------------------------------|
B|--------------------------|-----------------------------------|
G|--------------------------|-----------------------------------|
D|-----7--------------------|-----------------------------------|
A|--4--5--4--5--3--6--5--3--|-----------------------------------|
E|--2-----2--3--1--4--3--1--|--5-6-4-6-4-5-3-5-3-4-2-4-2-3-1-3--|

e|-----------------------------|
B|-----------------------------|
G|-----------------------------|
D|-----7-----------------------|
A|--4--5--4--5--3--6--5--3--2--|
E|--2-----2--3--1--4--3--1--0--|

            TIME- 0:57

Fig. 3 x4
e|--------------------------------------|---------------------------|
B|--------------------------------------|---------------------------|
G|--------------------------------------|---------------------------|
D|--2--2--2--2--2--2--2--2--2--2--2--2--|---------------------------|
A|--2--2--2--2--2--2--2--2--2--2--2--2--|--2-1---1-----1-0----------|
E|--0--0--0--0--0--0--0--0--0--0--0--0--|------3---2-1-----2-3-2-1--|

Riff 3 x2
e|---------------------------------------------------------------------|
B|---------------------------------------------------------------------|
G|----------3-2-----------------------------3-2------------------------|
D|--------------5-4-------------5---------------5-4--5-4----------5----|
A|--------------------------3-5---5----------------------6-5--3-5---5--|
E|--0-0-0-0---------0-0-0-0---------0-0-0-0----------------------------|

            TIME- 1:25

Fig. 3 x2
e|--------------------------------------|---------------------------|
B|--------------------------------------|---------------------------|
G|--------------------------------------|---------------------------|
D|--2--2--2--2--2--2--2--2--2--2--2--2--|---------------------------|
A|--2--2--2--2--2--2--2--2--2--2--2--2--|--2-1---1-----1-0----------|
E|--0--0--0--0--0--0--0--0--0--0--0--0--|------3---2-1-----2-3-2-1--|

Fig. 4 x2
e|---------------------------|---------------------------|
B|---------------------------|---------------------------|
G|---------------------------|------------------------3--|
D|--------3-----6-----5------|--------------3-2-1--------|
A|--------3-----6-----5------|--0-3-2-1-3-2-------0-1----|
E|--0-0-0-1-0-0-4-0-0-3-0-0--|---------------------------|

e|---------------------------|---------------------------|
B|---------------------------|---------------------------|
G|---------------------------|---------------------------|
D|--------3-----6-----5------|---------------------------|
A|--------3-----6-----5------|--------------6-8-7--------|
E|--0-0-0-1-0-0-4-0-0-3-0-0--|--3-5-6-5-7-8-------7-8-6--|

            TIME- 1:48

Riff 4 x3
e|--------------------------------|--------------------------------|
B|--------------------------------|--------------------------------|
G|--------------------------------|--------------------------------|
D|--------------------------------|--------------------------------|
A|---------------------------3-2--|---------------------------3-2--|
E|--000000000000-000-000-1-2------|--000000000000-000-000-1-2------|
    ............                     ............

e|----------------|----------------|
B|----------------|----------------|
G|----------------|----------------|
D|----------------|----------------|
A|---------3-2-3--|---------3-2-3--|
E|--222222-1-0-1--|--222222-1-0-1--|
    ......           ......

Riff 5 x1
e|----------------|----------------|----------------|----------------|
B|----------------|----------------|----------------|----------------|
G|----------------|----------------|----------------|----------------|
D|----------------|----------------|----------------|----------------|
A|---------4-3-4--|---------4-3-4--|---------3-2-3--|---------3-2-3--|
E|--333333-2-1-2--|--333333-2-1-2--|--222222-1-0-1--|--222222-1-0-1--|
    ......           ......           ......           ......

e|----------------|----------------|--------------------------|
B|----------------|----------------|--------------------------|
G|----------------|----------------|--------------------------|
D|----------------|----------------|--------------------------|
A|---------4-3-4--|---------4-3-4--|--3--3--3--3--3--3--3--3--|
E|--333333-2-1-2--|--333333-2-1-2--|--1--1--1--1--1--1--1--1--|
    ......           ......

            TIME- 2:16

Riff 6A x1
e|------------------------------------|------------------------------------|
B|------------------------------------|------------------------------------|
G|-----------------------------4h5p4--|-----------------------------4h5p4--|
D|---------------------3-2-3-4--------|---------------------3-2-3-4--------|
A|---------4---3---3-2----------------|---------4---3---3-2----------------|
E|--111111---1---1--------------------|--111111---1---1--------------------|

e|----------------------------------|----------------------------------|
B|----------------------------------|----------------------------------|
G|----------------------------------|----------------------------------|
D|----------------------------------|----------------------------------|
A|---------3---2---------3-2--------|---------3---2---------3-2--------|
E|--000000---0---0-0-2-3-----3-2-1--|--000000---0---0-0-2-3-----3-2-1--|

Riff 6B x1
    Guitar 1
  e|------------------------------------|------------------------------------|
  B|------------------------------------|------------------------------------|
  G|-----------------------------4h5p4--|-----------------------------4h5p4--|
  D|---------------------3-2-3-4--------|---------------------3-2-3-4--------|
  A|---------4---3---3-2----------------|---------4---3---3-2----------------|
  E|--111111---1---1--------------------|--111111---1---1--------------------|

    Guitar 2
  e|------------------------------------|------------------------------------|
  B|-----------------------------4h5p4--|-----------------------------4h5p4--|
  G|---------------------4-3-4-5--------|---------------------4-3-4-5--------|
  D|-----------------3-2----------------|-----------------3-2----------------|
  A|---------4---3----------------------|---------4---3----------------------|
  E|--111111---1---1--------------------|--111111---1---1--------------------|

    Guitars 1 & 2
  e|----------------------------------|----------------------------------|
  B|----------------------------------|----------------------------------|
  G|----------------------------------|----------------------------------|
  D|----------------------------------|----------------------------------|
  A|---------3---2---------3-2--------|---------3---2---------3-2--------|
  E|--000000---0---0-0-2-3-----3-2-1--|--000000---0---0-0-2-3-----3-2-1--|

            TIME- 2:33

Riff 2B x3
e|-----------------------------------|----------------------------------|
B|-----------------------------------|----------------------------------|
G|-----------------------------------|----------------------------------|
D|-----------------------------------|----------------------------------|
A|------555--------------------------|----------------------------------|
E|--222-----222-333-111-444-333-111--|--222222-333-555-111-222-444-222--|

            TIME- 2:45

Riff 1B x1
e|-----------------------------------|---------------------------------|
B|-----------------------------------|---------------------------------|
G|-----------------------------------|---------------------------------|
D|-----------------------------------|------------------------------3--|
A|--------------------------------3--|------------------------------3--|
E|--0-0-000-0-0-000-3-0-2-0-3-0-2----|--0-0-000-0-0-000-5-7-3-5-2-3-1--|

e|-----------------------------------|---------------------------------|
B|-----------------------------------|---------------------------------|
G|-----------------------------------|---------------------------------|
D|-----------------------------------|--------------------------5-4-3--|
A|--------------------------------3--|------------------3-4-5-2--------|
E|--0-0-000-0-0-000-3-0-2-0-3-0-2----|--0-0-000-0-0-000----------------|

Kill the song-
e|-----|
B|-----|
G|-----|
D|--2--|
A|--2--|
E|--0--|

            TIME- 2:55

  Visit MetalTabs.com for more metal tablature

bottom separator

Contact Us | Privacy Policy | Disclaimer | Legal Notice
Copyright © 2001-2014 MetalTabs.com. All Rights Reserved.