top separator

Home

Forum

What's New

Submit a Tab

FAQ

Links

Contact Us

Link to Us

MetalTabs.com logo

Bands

0-9

A

B

C

D

E

F

G

H

I

J

K

L

M

N

O

P

Q

R

S

T

U

V

W

X

Y

Z

Search

What

Where
 

Nile - "In Their Darkened Shrines: III. Destruction of the Temple of the Enemies of Ra" Guitar Tab

Plain Text Version
More Nile Tabs

Hits: 5498
Rated: 5.00 out of 5 (9 votes)
Updated: 2004-02-29 13:41:34

 

By:

johnmansley

sendpm.gif

email.gif

Important note
This tab is available online because we obtained explicit permission from Nile or their label.


#----------------------------------PLEASE NOTE---------------------------------#
#This file is the author's own work and represents their interpretation of the #
#song. You may only use this file for private study, scholarship, or research. #
#Unless specified otherwise, this is NOT an official tab from the band members.#
#------------------------------------------------------------------------------#

  Visit MetalTabs.com for more metal tablature
  
Band:  Nile
Album: In Their Darkened Shrines
Song:  III. Destruction Of The Temple Of The Enemies Of Ra

Copyright (c)  (Relapse) (2002)
Version 2.0 - (10/01/04)

Transcribed By: John Mansley
Email:          john@smansley.freeserve.co.uk


.  - palm mute           /  - slide up to
\  - slide down to       ~  - vibrato
h  - hammer on           b  - Bend
p  - pull off            Suffixes for bend
t  - tap                 f  - full bend    h - half bend
ph - pinched harmonic    q  - quarter bend t - tap bend
*  - see comment         ^  - Hold bend    r release bend
x  - Stuccatto           ~  - vibrato bend
,  - slight palm mute    () - ghost note, sustained note
"  - tremolo note        <> - Trill

Tunning: A E A D F# B


Intro:              ____________  ____________
                               1|            2|
|------------------|-------------|-------------|
|------------------|-------------|-------------|
|-8654-------------|-------------|-------------|
|-----7643-34643---|-0-----------|-0---6-6-6-6-|
|---------6-----65-|-0-----------|-0---6-6-6-6-|
|------------------|-0-----------|-0---6-6-6-6-|


Riff A1:

|-------------|-------------|-------------|-------------|
|-------------|-------------|-------------|-------------|
|-------------|-------------|-------------|-------------|
|-------------|-------------|-------------|-------------|
|-5/6-0-0-1-3-|-5/6-0-0-1-3-|-5/6-0-0-1-3-|-5/6--6/9--6-|
|-----0-0-1-3-|-----0-0-1-3-|-----0-0-1-3-|-------------|
      . . . .       . . . .       . . . .


Riff A2:

|-------------|-------------|-------------|--------------|
|-------------|-------------|-------------|--------------|
|-------------|-------------|-------------|--------------|
|-7/8---------|-7/8---------|-7/8---------|-7/8--8/11--8-|
|-5/6-0-0-1-3-|-5/6-0-0-1-3-|-5/6-0-0-1-3-|-5/6--6/-9--6-|
|-----0-0-1-3-|-----0-0-1-3-|-----0-0-1-3-|--------------|
      . . . .       . . . .       . . . .


Riff B:

|------------------|------------------|------------------|
|------------------|------------------|------------------|
|------------------|------------------|------------------|
|------------------|------------------|------------------|
|-3333333355555555-|-6666666655555555-|-3333333333333333-|
|------------------|------------------|------------------|

|------------------|------------------|------------------|
|------------------|------------------|------------------|
|------------------|------------------|------------------|
|------------------|------------------|------------------|
|------------------|------------------|------------------|
|-0000000011111111-|-4444444488888888-|-7777777777777777-|
  ................   ................   ................


Riff C:
                x3
|-----------------|-----------------|-----------------|
|-----------------|-----------------|---6-------------|
|-5---4---3---2---|-----------------|---5-------------|
|-5---4---3---2---|-4---------------|---3-------------|
|-3---2---1---0---|-4---------------|-4---------------|
|-----------------|-4---------------|-4---------------|


Riff D:

|------------------|-------------------|----------------------|
|------------------|-------------------|----------------------|
|------------------|-------------------|----------------------|
|-7----------------|------9------------|----------9---8---8\7-|
|-5----------------|------6------------|----------6---5---5---|
|-----000000000000-|-0000--00000000000-|-00000000-------------|
      ............   ....  ...........   ........

|------------------|------------------|
|------------------|------------------|
|------------------|------------------|
|------------------|--8---7---7\6---6/|
|------------------|--5---4---4-----4/|
|-0000000000000000-|------------------|
  ................


Riff E:             ____________  ____________  _________________
                               1|          2,4|                 3|
|------------------|-------------|-------------|------------------|
|------------------|-------------|-------------|------------------|
|-8754-------------|-------------|-------------|------------------|
|-----7643-34643---|-0-----------|-0---6-6-6-6-|------------------|
|---------6-----65-|-0-----------|-0---6-6-6-6-|------------------|
|------------------|-0-----------|-0---6-6-6-6-|-0011001144441111-|
  ................                               ................


Riff F1:

|---------------|-------------|
|---------------|-------------|
|-7---------7---|-------------|
|-7----6----7---|-6-7-7-7-6-3-|
|-5----6----5---|-6-7-7-7-6-3-|
|------6--------|-6-7-7-7-6-3-|

Riff F2:

|---------------|-------------|
|---------------|-------------|
|---------------|-------------|
|-0----6----0---|-6-7-7-7-6-3-|
|-0----6----0---|-6-7-7-7-6-3-|
|-0----6----0---|-6-7-7-7-6-3-|


Outro 1:

|------------------|
|------------------|
|------------------|
|-0000000000000000-|
|-0000000000000000-|
|-0000000000000000-|


Outro 2:

|-5555555555555555-|
|-3333333333333333-|
|-2222222222222222-|
|------------------|
|------------------|
|------------------|



Song Structure:

Intro        x3
Riff A1      x2
Riff A2
Riff B       x3
Riff C
Riff D       x2
Riff E
Riff F1      x2
Riff F2      x2 (w/ ritard)
Outro 1      x8 (gtr. 2 plays Outro 2 over the last 4)


Feel free to make any comments, corrections or suggestions.


END

  Visit MetalTabs.com for more metal tablature

bottom separator

Contact Us | Privacy Policy | Disclaimer | Legal Notice
Copyright © 2001-2014 MetalTabs.com. All Rights Reserved.