top separator

Home

Forum

What's New

Submit a Tab

FAQ

Links

Contact Us

Link to Us

MetalTabs.com logo

Bands

0-9

A

B

C

D

E

F

G

H

I

J

K

L

M

N

O

P

Q

R

S

T

U

V

W

X

Y

Z

Search

What

Where
 

Unleashed - "Where No Life Dwells" Guitar Tab

Plain Text Version
More Unleashed Tabs

Hits: 3329
Updated: 2004-01-03 14:21:44

 

By:

Daniil

sendpm.gif

email.gif

Important note
This tab is available online because we obtained explicit permission from Unleashed or their label.


#----------------------------------PLEASE NOTE---------------------------------#
#This file is the author's own work and represents their interpretation of the #
#song. You may only use this file for private study, scholarship, or research. #
#Unless specified otherwise, this is NOT an official tab from the band members.#
#------------------------------------------------------------------------------#

  Visit MetalTabs.com for more metal tablature
  
UNLEASHED-Where No Life Dwells
Where No Life Dwells-1991
Transcribed by Daniil Laletin
e-mail: dlaletin@mail.ru
version 1.0 October 2003

All corrections are welcome.


This short instrumental is played by acoustic guitar


|-------------10-------------------13-12----------------10-------------------13-12----|
|-10-12h13p12----13-12-10-12h13p12-------13-10-12h13p12----13-12-10-12h13p12-------13-|
|-------------------------------------------------------------------------------------|
|-------------------------------------------------------------------------------------|
|-0--------------------0--------------------0--------------------0--------------------|
|-------------------------------------------------------------------------------------|


|-------------15-13-10-------------12-------------------10-------------------13-12----|
|-10-12h13p12----------10-12h13p12----13-12-10-12h13p12----13-12-10-12h13p12-------13-|
|-------------------------------------------------------------------------------------|
|-------------------------------------------------------------------------------------|
|-0--------------------0--------------------0--------------------0--------------------|
|-------------------------------------------------------------------------------------|


|-------------------10----------10----------------------10----12----10----|
|-10-10-10-10-12-13----13-12-13----13-10-10-10-10-12-13----13----13----13-|
|-------------------------------------------------------------------------|
|-------------------------------------------------------------------------|
|-0--0--0--0--------------------------0--0--0--0--------------------------|
|-------------------------------------------------------------------------|


|---------15-13-12h13p12----10---------------15-13-12h13p12----10-------|
|-8-8-8-8----------------13----13-12-8-8-8-8----------------13----13-12-|
|-----------------------------------------------------------------------|
|-----------------------------------------------------------------------|
|-0-0-0-0----------------------------0-0-0-0----------------------------|
|-----------------------------------------------------------------------|


|-------------------10----12----10----------------------10----12----------|
|-10-10-10-10-12-13----13----13----13-10-10-10-10-12-13----13----13-12-13-|
|-------------------------------------------------------------------------|
|-------------------------------------------------------------------------|
|-0--0--0--0--------------------------0--0--0--0--------------------------|
|-------------------------------------------------------------------------|


|---------15-13-12h13p12----10-------------------------12----------10----|
|-8-8-8-8----------------13----13-12-10-10-10-10-12-13----13-12-13----13-|
|------------------------------------------------------------------------|
|------------------------------------------------------------------------|
|-0-0-0-0----------------------------0--0--0--0--------------------------|
|------------------------------------------------------------------------|


|-------------------------------------------------------------------------------|
|-10-10-10-10-12h13p12-10-15-13-10-12-13-10-10-10-10-12h13p12-10-15-13-10-12-13-|
|-------------------------------------------------------------------------------|
|-------------------------------------------------------------------------------|
|-0--0--0--0-----------0--------0--------0--0--0--0-----------0--------0--------|
|-------------------------------------------------------------------------------|


|---------15-13-12h13p12----10----------------10------------|
|-8-8-8-8----------------13----13-12-10-12-13----13-12---10-|
|-----------------------------------------------------------|
|-----------------------------------------------------------|
|-0-0-0-0----------------------------0-------------------0--|
|-----------------------------------------------------------|

  Visit MetalTabs.com for more metal tablature

bottom separator

Contact Us | Privacy Policy | Disclaimer | Legal Notice
Copyright © 2001-2014 MetalTabs.com. All Rights Reserved.