top separator

Home

Forum

What's New

Submit a Tab

FAQ

Links

Contact Us

Link to Us

MetalTabs.com logo

Bands

0-9

A

B

C

D

E

F

G

H

I

J

K

L

M

N

O

P

Q

R

S

T

U

V

W

X

Y

Z

Search

What

Where
 

Unleashed - "The Dark One" Guitar Tab

Plain Text Version
More Unleashed Tabs

Hits: 2928
Updated: 2004-01-03 14:21:00

 

By:

Daniil

sendpm.gif

email.gif

Important note
This tab is available online because we obtained explicit permission from Unleashed or their label.


#----------------------------------PLEASE NOTE---------------------------------#
#This file is the author's own work and represents their interpretation of the #
#song. You may only use this file for private study, scholarship, or research. #
#Unless specified otherwise, this is NOT an official tab from the band members.#
#------------------------------------------------------------------------------#

  Visit MetalTabs.com for more metal tablature
  
UNLEASHED-The Dark One
Where No Life Dwells-1991
Transcribed by Daniil Laletin
e-mail: dlaletin@mail.ru
version 1.0 October 2003

All corrections are welcome.


Intro                Riff 1
|----------------|  |-----------------|
|----------------|  |-----------------|
|----------------|  |-----------------|
|-/4-------------|  |-----------------|
|-/2-2---2~---1~-|  |-3-6-2---2~---1~-|
|----0-----------|  |-1-4-0-----------|


Riff 2                   Riff 3
|--------------------|  |------------------|
|--------------------|  |------------------|
|--------------------|  |---------3333-----|
|--------------------|  |-22223355----5533-|
|--------------------|  |------------------|
|-000000001100001144-|  |------------------|


Riff 4a
|----------------------------------|
|----------------------------------|
|----------------------------------|
|----------------------------------|
|----------------------------------|
|-00001144000011440000114433331111-|
|
|----------------------------------|
|----------------------------------|
|----------------------------------|
|-------------------------5~--3~---|
|-2-------2-------2----------------|
|-0-------0-------0----------------|


Riff 4b
|----------------------------------|
|----------------------------------|
|----------------------------------|
|----------------------------------|
|----------------------------------|
|-00001144000011440000114433331111-|
|
|----------------------------------|
|----------------------------------|
|----------------------------------|
|-22223366222233662222336655553333-|
|----------------------------------|
|----------------------------------|


Riff 5
|----------------------------------------------------------------------|
|----------------------------------------------------------------------|
|----------------------------------------------------------------------|
|---------------------------776666-------------------------------------|
|-5544--445544----5544--4455------5544--445544----5544--44555588888888-|
|-----33------3333----33--------------33------3333----33---------------|


Riff 6a
|-----------------------------|
|-----------------------------|
|-----------------------------|
|----2---5----------2---5-----|
|-2----------3---2----------3-|
|-0--------------0------------|
|
|-----------------------------|
|-----------------------------|
|-----------------------------|
|-----------------------------|
|-2--------------2------------|
|-0--------------0------------|


Riff 6b                           Riff 7
|-----------------------------|  |-----------------|
|-----------------------------|  |-----------------|
|-----------------------------|  |-----------------|
|----2---5----------2---5-----|  |-----------2h3p2-|
|-2----------3---2----------3-|  |-2-2h3p2-2-------|
|-0--------------0------------|  |-0-------0-------|


Riff 8
|-------------------------------------------------------------------------------|
|-------------------------------------------------------------------------------|
|-------------------------------------------------------------------------------|
|---------------------------------------3-2---------------------------------3-2-|
|-2------------1h2-5p1-2------------2h3----------------1h2-5p1-2--------2h3-----|
|-0-000=000=00---------0-000-000-00---------000-000-00---------0-000-00---------|

  Visit MetalTabs.com for more metal tablature

bottom separator

Contact Us | Privacy Policy | Disclaimer | Legal Notice
Copyright © 2001-2014 MetalTabs.com. All Rights Reserved.