top separator

Home

Forum

What's New

Submit a Tab

FAQ

Links

Contact Us

Link to Us

MetalTabs.com logo

Bands

0-9

A

B

C

D

E

F

G

H

I

J

K

L

M

N

O

P

Q

R

S

T

U

V

W

X

Y

Z

Search

What

Where
 

Cadaveria - "The Magic Rebirth" Guitar Tab

Plain Text Version
More Cadaveria Tabs

Hits: 3076
Updated: 2004-01-03 14:20:03

 

By:

Daniil

sendpm.gif

email.gif

Important note
This tab is available online because we obtained explicit permission from Cadaveria or their label.


#----------------------------------PLEASE NOTE---------------------------------#
#This file is the author's own work and represents their interpretation of the #
#song. You may only use this file for private study, scholarship, or research. #
#Unless specified otherwise, this is NOT an official tab from the band members.#
#------------------------------------------------------------------------------#

  Visit MetalTabs.com for more metal tablature
  
CADAVERIA-The Magic Rebirth
The Shadows' Madame-2002
Transcribed by Daniil Laletin
e-mail: dlaletin@mail.ru
version 1.0 October 2003

All corrections are welcome.


Riff 1                            Riff 2
|-----------------------------|  |-----------------------------|
|-----------------------------|  |-----------------------------|
|-77-xxxx-77-xxxx-88-xxxx-8-8-|  |-----------------------------|
|-77-xxxx-77-xxxx-88-xxxx-8-8-|  |-55-xxxx-55-xxxx-66-xxxx-6-6-|
|-55-xxxx-55-xxxx-66-xxxx-6-6-|  |-55-xxxx-55-xxxx-66-xxxx-6-6-|
|-----------------------------|  |-33-xxxx-33-xxxx-44-xxxx-4-4-|



Riff 3
|--------------------------------------------------------------|
|--------------------------------------------------------------|
|--------------------------------------------------------------|
|---------33335555------------------------33335555555544444444-|
|-66665555--------11113333--------66665555---------------------|
|-------------------------55553333-----------------------------|



Riff 4 - i think this riff must be played with whammy-bar
|----------------------------------------------------|
|---------------------------------------777------777-|
|-3---7---5-------3---7---5--------8--7-777-8--7-777-|
|-5-0-8-0-7-0-4-0-5-0-8-0-7-0-4-0--8--7-----8--7-----|
|-------------5---------------5----6--5-----6--5-----|
|----------------------------------------------------|


Riff 5                Riff 6
|-----------------|  |-------------------------------|
|-----------------|  |-------------------------------|
|-----------------|  |-------------------------------|
|-----7-----------|  |-------------------------------|
|-5---5-7-8---7-8-|  |-5---3h5h6-5-3-8-----------7-8-|
|-3-----5-6---5-6-|  |-3-------------6-3-5-6-5-3-5-6-|
                .                      . . . . .


Riff 7                                Riff 8
|---------------------------------|  |----------|
|---------------------------------|  |----------|
|---------------------------------|  |----------|
|---------------------------------|  |-5----5-5-|
|---------------------------------|  |-5----5-5-|
|-0h3333-0h3333-0h3333-5p3p222222-|  |-3----3-3-|


Riff 9
|------------------------------------------------------------------------|
|------------------------------------------------------------------------|
|------------------------------------------------------------------------|
|---5------------5------------5------------------------------------------|
|-----6-5-44-------6-5-44-------6-5-44-----------------------------------|
|-3----------5-3----------5-3----------5-0h3h4h6p0h3h4h6p0h3h4h6p0h3h4h6-|



Riff 10
|----------------------------------|
|----------------------------------|
|----------------------------------|
|----------------------------------|
|----------------------------------|
|-0h3h4h6p0h3h4h6p0h3h4h6p0h3h4h6p-|
  (play this four times)



Riff 11                       Riff 12
|-------------------------|  |---------------|
|-------------------------|  |---------------|
|-----------------------6-|  |---------------|
|---6-4-6p4h6---6-4h6p4---|  |-4-2h4p2p1-----|
|-4-----------4-----------|  |-----------2-4-|
|-------------------------|  |---------------|


Riff 13
|----------------------------|
|----------------------------|
|-----8-----9-----8/9\8-11-9-|
|-----6-----7-----6/7\6--9-7-|
|-444---444---444------------|
|----------------------------|


Riff 14
|-------------------------------------|
|-9---7-9-10-9-7-8-9---12-10-9-7-9-10-|
|-8---6-8--9-8-6-7-8---11--9-8-6-8--9-|
|-6---4-6--7-6-4-5-6----9--7-6-4-6--7-|
|-------------------------------------|
|-------------------------------------|


Ending riff
|------------------------------|
|------------------------------|
|-----8-----9-----8/9\8-11-9-8-|
|-----6-----7-----6/7\6--9-7-6-|
|-444---444---444--------------|
|------------------------------|

  Visit MetalTabs.com for more metal tablature

bottom separator

Contact Us | Privacy Policy | Disclaimer | Legal Notice
Copyright © 2001-2014 MetalTabs.com. All Rights Reserved.