top separator

Home

Forum

What's New

Submit a Tab

FAQ

Links

Contact Us

Link to Us

MetalTabs.com logo

Bands

0-9

A

B

C

D

E

F

G

H

I

J

K

L

M

N

O

P

Q

R

S

T

U

V

W

X

Y

Z

Search

What

Where
 

Cadaveria - "Spell" Guitar Tab

Plain Text Version
More Cadaveria Tabs

Hits: 4807
Rated: 4.50 out of 5 (2 votes)
Updated: 2004-01-03 14:19:41

 

By:

Daniil

sendpm.gif

email.gif

Important note
This tab is available online because we obtained explicit permission from Cadaveria or their label.


#----------------------------------PLEASE NOTE---------------------------------#
#This file is the author's own work and represents their interpretation of the #
#song. You may only use this file for private study, scholarship, or research. #
#Unless specified otherwise, this is NOT an official tab from the band members.#
#------------------------------------------------------------------------------#

  Visit MetalTabs.com for more metal tablature
  
CADAVERIA-Spell
The Shadows' Madame-2002
Transcribed by Daniil Laletin
e-mail: dlaletin@mail.ru
version 1.0 October 2003

All corrections are welcome.


Riff 1
|------------------------------------------------------------------------------|
|------------------------------------------------------------------------------|
|-------------------3--------------------------------------3-------------------|
|-3-5h6-3-5h6-3-5h6---5p3-----3-6-3-6----3-5h6-3-5h6-3-5h6---5p3-----3-6-5---3-|
|-------------------------4-3---------3--------------------------4-3-------3---|
|------------------------------------------------------------------------------|

|---------------------------------------------------------------------|
|---------------------------------------------------------------------|
|-8---13-12-10-8-7-5-7----------6-----------5-----------3-------------|
|-6---11-10--8-6-5-3-5-5--3-5h6---5h6---5h6---5h6---5h6---5h6---5h6-3-|
|----------------------3--------------6-----------4-----------3-------|
|---------------------------------------------------------------------|

|----------------------------------------------------------------------------------|
|----------------------------------------------------------------------------------|
|-------6-----------5-----------3--------------------------------------------------|
|-3-5h6---5h6---5h6---5h6---5h6---5h6---5h6-3--3-5-6-8-5-6-8-10-6-8-10-11-5-6-8-10-|
|-------------6-----------4-----------3--------------------------------------------|
|----------------------------------------------------------------------------------|

|----------------------------------------------------------|
|----------------------------------------------------------|
|----------------------------------------------------------|
|----------3-5-6-8-5-6-8-10-6-8-10-11-5-6-8-10-------------|
|-10-10-10-------------------------------------10-10-10-11-|
|--8--8--8--------------------------------------8--8--8--9-|



Riff 2
|----------------------------|
|----------------------------|
|----------------------------|
|----------------------------|
|-11-10-7-10-7-7-7-7-7-7-7-7-|
|--9--8-5--8-5-5-5-5-5-5-5-5-|
             . . . . . . . .


Riff 2
|-----------------------------------------------------------|
|-----------------------------------------------------------|
|-9-9-9-8/9-9-9-8/9-9-9-------------9-9-9-8/9-9-9-8/9-9-9---|
|-7-7-7-6/7-7-7-6/7-7-7-7-9-10-10---7-7-7-6/7-7-7-6/7-7-7-7-|
|-7-7-7-6/7-7-7-6/7-7-7-5-7--8--8---7-7-7-6/7-7-7-6/7-7-7-5-|
|-----------------------------------------------------------|

|-----------------------------------------------------------|
|-----------------------------------------------------------|
|-9-9-9-8/9-9-9-8/9-9-9-------------9-9-9-8/9-9-9-8/9-9-9---|
|-7-7-7-6/7-7-7-6/7-7-7-7-9-10-10---7-7-7-6/7-7-7-6/7-7-7---|
|-7-7-7-6/7-7-7-6/7-7-7-5-7--8--8---7-7-7-6/7-7-7-6/7-7-7---|
|-----------------------------------------------------------|


Riff 3
|-------------------------------------------------|
|-------------------------------------------------|
|-------------------------------------------------|
|----------222111---------------------------------|
|-000222333------333222000000000000------33322222-|
|----------------------------------444000---------|


Riff 4
|-------------------------------------------------|
|-------------------------------------------------|
|-------------------------------------------------|
|----------222111---------------------------------|
|-000222333......333222000000000000------33322222-|
|-.........------..................444000........-|
                                   ......

Riff 5            Riff 6
|-------------|  |-----------------------------|
|-------------|  |-----------a.h.--------------|
|---------8-5-|  |-----------545---------------|
|-7-7-7-6-8-5-|  |-----------------------------|
|-7-7-7-6-6-3-|  |-222-22222-----222-222-------|
|-5-5-5-4-----|  |-000-00000-----000-000-2h3p2-|


Riff 7
|------------------------------------------------------------------------------|
|------------------------------------------------------------------------------|
|-------------------2--------------------------------------2-------------------|
|-2-4h5-2-4h5-2-4h5---4p2-----2-5-2-5----2-4h5-2-4h5-2-4h5---4p2-----2-5-4---2-|
|-------------------------3-2---------2--------------------------3-2-------2---|
|------------------------------------------------------------------------------|

|--------------------------------------------------------------------|
|--------------------------------------------------------------------|
|-7---12-11-9-7-6-4-6----------5-----------4-----------2-------------|
|-5---10--9-7-5-4-2-4-4--2-4h5---4h5---4h5---4h5---4h5---4h5---4h5-2-|
|---------------------2--------------5-----------3-----------2-------|
|--------------------------------------------------------------------|

|-------------------------------------------------------------------------------|
|-------------------------------------------------------------------------------|
|-------5-----------4-----------2-----------------------------------------------|
|-2-4h5---4h5---4h5---4h5---4h5---4h5---4h5-2--2-4-5-7-4-5-7-9-5-7-9-10-4-5-7-9-|
|-------------5-----------3-----------2-----------------------------------------|
|-------------------------------------------------------------------------------|

|--------------------------------------------------------|
|--------------------------------------------------------|
|--------------------------------------------------------|
|-------2-4-5-7-4-5-7-9-5-7-9-10-4-5-7-9-------------12~-|
|-9-9-9----------------------------------9-9-9-10--------|
|-7-7-7----------------------------------7-7-7--8--------|

  Visit MetalTabs.com for more metal tablature

bottom separator

Contact Us | Privacy Policy | Disclaimer | Legal Notice
Copyright © 2001-2014 MetalTabs.com. All Rights Reserved.