top separator

Home

Forum

What's New

Submit a Tab

FAQ

Links

Contact Us

Link to Us

MuSpy.com

MetalTabs.com logo

Bands

0-9

A

B

C

D

E

F

G

H

I

J

K

L

M

N

O

P

Q

R

S

T

U

V

W

X

Y

Z

Search

What

Where
 

Cadaveria - "In Memory Of Shadow's Madame" Guitar Tab

Plain Text Version
More Cadaveria Tabs

Hits: 3725
Rated: 5.00 out of 5 (1 vote)
Updated: 2004-01-03 14:19:18

 

By:

Daniil

sendpm.gif

email.gif

Important note
This tab is available online because we obtained explicit permission from Cadaveria or their label.


#----------------------------------PLEASE NOTE---------------------------------#
#This file is the author's own work and represents their interpretation of the #
#song. You may only use this file for private study, scholarship, or research. #
#Unless specified otherwise, this is NOT an official tab from the band members.#
#------------------------------------------------------------------------------#

  Visit MetalTabs.com for more metal tablature
  
CADAVERIA-In Memory Of Shadows' Madame
The Shadows' Madame-2002
Transcribed by Daniil Laletin
e-mail: dlaletin@mail.ru
version 1.0 October 2003

All corrections are welcome.


Riff 1
|--------------------------------|
|--------------------------------|
|--------------------------------|
|-x10-9-/12-7---x10-9-/12-7-77-8-|
|-x-8-7-/10-5---x-8-7-/10-5-55-6-|
|---------------------------..---|


Rif 2
|--------------------------------------------|
|--------------------------------------------|
|--------------------------------------------|
|---------5-7h8p7-5--------------5-7h8p7-5-7-|
|-4-5-7-8-----------8-7--4-5-7-8-------------|
|-.-.-.-.-.--------------.-.-.-.-.-----------|


Riff 3
|---------------------------------------|
|---------------------------------------|
|---------------------------------------|
|-7----8----7----6-7-7----8----7----6-7-|
|-5-55-5-55-5-55-5-5-5-55-5-55-5-55-5-5-|
|---------------------------------------|

|----------------------------------|
|----------------------------------|
|----------------------------------|
|-5----6----5----4-5-4-3-4-3-4-5-4-|
|-3-33-3-33-3-33-3-3-2-2-2-2-2-2-2-|
|----------------------------------|


Riff 4
|------------|
|------------|
|------------|
|-----7-6-10-|
|-7-7-5-4--8-|
|-5-5--------|


Riff 5
|------------------------------------------------------------------|
|------------------------------------------------------------------|
|--------------------------------9---------------------------------|
|-7-7-10-9-7-/12-10--10-9-7-9-10-7--7-10-9-7-/12-10--10-9-7-9-10-6-|
|-5-5--8-7-5-/10--8---8-7-5-7--8----5--8-7-5-/10--8---8-7-5-7--8-4-|
|------------------------------------------------------------------|


Riff 6
|---------------------|
|---------------------|
|---------------------|
|-8-7-5-5--8-7-5-10-8-|
|-6-5-3-3--6-5-3--8-6-|
|---------------------|


Riff 7
|-------------------------------------------------------------------------|
|-------------------------------------------------------------------------|
|-------------------------------------------------------------------------|
|-5-5-5----8-8-8-88-5-5-5----8-8-8-8--8-8-8-88-7-7-7-77-8-8-8-88-7-7-7-77-|
|-3-3-3----6-6-6-66-3-3-3----6-6-6-6--6-6-6-66-5-5-5-55-6-6-6-66-5-5-5-55-|
|-------33-------..-------33----------------..-------..-------..-------..-|
        ..                ..

Riff 8
|--------------------------|
|--------------------------|
|--------------------------|
|-7-9-10-9-7-9-10-9-7-9-10-|
|-5-7--8-7-5-7--8-7-5-7--8-|
|--------------------------|


Riff 9
|-----------------------------------|
|-----------------------------------|
|-----------------------------------|
|-----------------------------------|
|-557788887777557788888777755778888-|
|-----------------------------------|


Ending riff
|---------------------------------|
|---------------------------------|
|---------------------------------|
|--------------------------7-9-10-|
|-557788887777557788887777-5-7--8-|
|---------------------------------|

  Visit MetalTabs.com for more metal tablature

bottom separator

Contact Us | Privacy Policy | Disclaimer | Legal Notice
Copyright © 2001-2014 MetalTabs.com. All Rights Reserved.