top separator

Home

Forum

What's New

Submit a Tab

FAQ

Links

Contact Us

Link to Us

MuSpy.com

MetalTabs.com logo

Bands

0-9

A

B

C

D

E

F

G

H

I

J

K

L

M

N

O

P

Q

R

S

T

U

V

W

X

Y

Z

Search

What

Where
 

Cadaveria - "Circle Of Eternal Becoming" Guitar Tab

Plain Text Version
More Cadaveria Tabs

Hits: 3391
Rated: 5.00 out of 5 (1 vote)
Updated: 2004-01-03 14:18:41

 

By:

Daniil

sendpm.gif

email.gif

Important note
This tab is available online because we obtained explicit permission from Cadaveria or their label.


#----------------------------------PLEASE NOTE---------------------------------#
#This file is the author's own work and represents their interpretation of the #
#song. You may only use this file for private study, scholarship, or research. #
#Unless specified otherwise, this is NOT an official tab from the band members.#
#------------------------------------------------------------------------------#

  Visit MetalTabs.com for more metal tablature
  
CADAVERIA-Circle Of Eternal Becoming
The Shadows' Madame-2002
Transcribed by Daniil Laletin
e-mail: dlaletin@mail.ru
version 1.0 October 2003

All corrections are welcome.


Riff 1
|-------------------------------------|
|-------------------------------------|
|---------------------4---------------|
|-4-444444-5-4-444444-4--5-7-4-444444-|
|-4-444444-5-4-444444----5-7-4-444444-|
|-------------------------------------|
    ......     ......          ......


Riff 2
|---------------------------------------------------------------|
|---------------------------------------------------------------|
|---------------------------------------------------------------|
|---------------------------------------------------------------|
|---------------------------------------------------------------|
|-0232322222222-02302333333333-0232322222222-023023333333333333-|
  ............. .............. ............. ..................


Riff 3a
|-----------------------------------------|
|-----------------------------------------|
|-----------------------------------------|
|-4-4-4p2h4h5p4-4p2h4-5-5-5p4h5h7p5-5p4h5-|gtr 1
|-----------------------------------------|
|-----------------------------------------|
|
|-----------------------------------------|
|-----------------------------------------|
|-----------------------------------------|
|-4-4-------4-4-------5-5-------5-5-------|gtr 2
|-4-4-------4-4-------5-5-------5-5-------|
|-2-2-------2-2-------3-3-------3-3-------|


Riff 3b
|-----------------------------------------|
|-----------------------------------------|
|-----------------------------------------|
|-4-4-4p2h4h5p4-4p2h4-5-5-5p4h5h7p5-5p4h5-|
|-----------------------------------------|
|-----------------------------------------|


Riff 4
|--------------------------------|
|--------------------------------|
|--------------------------------|
|-4---7-6-----9-7-6--------4-6-4-|
|-2---5-4-7---7-5-4-7-5--7-2-4-2-|
|---------5---------5-3--5-------|


Riff 5
|------------------------------------------|
|------------------------------------------|
|------------------------------------------|
|-7\4-4-7\4-4-7\4-4-9-9--4/7-7-4/7-7-4/7-6-|
|-5\2-2-5\2-2-5\2-2-7-7--2/5-5-2/5-5-2/5-4-|
|------------------------------------------|


Riff 6
|---------------------------------------------|
|---------------------------------------------|
|---------------------6-----------------------|
|-4-----7-----9-----4-4-4-----7-----9-----4-2-|
|-2-22225-22227-22222---2-22225-22227-22222-0-|
|---------------------------------------------|


Ending chord
|---------------------------------------------|
|---------------------------------------------|
|---------------------6-----------------------|
|-4-----7-----9-----4-4-4-----7-----9-----4-2-|
|-2-22225-22227-22222---2-22225-22227-22222-0-|
|---------------------------------------------|
|
|---------------------------------------------|
|---------------------------------------------|
|---------------------6-------------------4-2-|
|-4-----7-----9-----4-4-4-----7-----9---------|
|-2-22225-22227-22222---2-22225-22227-2222----|
|---------------------------------------------|

  Visit MetalTabs.com for more metal tablature

bottom separator

Contact Us | Privacy Policy | Disclaimer | Legal Notice
Copyright © 2001-2014 MetalTabs.com. All Rights Reserved.