top separator

Home

Forum

What's New

Submit a Tab

FAQ

Links

Contact Us

Link to Us

MetalTabs.com logo

Bands

0-9

A

B

C

D

E

F

G

H

I

J

K

L

M

N

O

P

Q

R

S

T

U

V

W

X

Y

Z

Search

What

Where
 

Cadaveria - "Absolute Vacuum" Guitar Tab

Plain Text Version
More Cadaveria Tabs

Hits: 3184
Updated: 2004-08-16 17:49:03

 

By:

Daniil

sendpm.gif

email.gif

Important note
This tab is available online because we obtained explicit permission from Cadaveria or their label.


#----------------------------------PLEASE NOTE---------------------------------#
#This file is the author's own work and represents their interpretation of the #
#song. You may only use this file for private study, scholarship, or research. #
#Unless specified otherwise, this is NOT an official tab from the band members.#
#------------------------------------------------------------------------------#

  Visit MetalTabs.com for more metal tablature
  
CADAVERIA-Absolute Vacuum
The Shadows' Madame-2002
Transcribed by Daniil Laletin
e-mail: dlaletin@mail.ru
version 1.1 July 2004

All corrections are welcome.

 " - tremolo
 / - slide down
 \ - slide up
 . - palm mute
 ~ - long sound
 x - rest
 p - pull off
 h - hammer on
 tr - trill
 () - ghost note, sustained note

================================

Intro solo
|---------------9-10-9h10p9-----------------------------|
|-10~-----10-11-------------11-10-8------10-8-----------|
|-----------------------------------10-9------10-9-8-7~-|
|-------------------------------------------------------|
|-------------------------------------------------------|
|-------------------------------------------------------|

|-------------------------8-10-9-10---------------------|
|----------------8---10-----10-9-10-10~-----------------|
|---7---9---10---.----.-------------10~-----------------|
|-7-.-7-.-7--.-7---7----7-------------------------------|
|-.---.---.----.---.----.-------------------------------|
|-------------------------------------------------------|

|----10----12----13----15-13-12-10-13-12-10-9-10~~~-----|
|-10----10----10----10----------------------------------|
|-------------------------------------------------------|
|-------------------------------------------------------|
|-------------------------------------------------------|
|-------------------------------------------------------|

|-------------------------|
|-------------------------|
|-------------------------|
|-7/8\7\5/7\5\3/5\3\2/3\2-|
|-------------------------|
|-------------------------|



Riff 1
|--------------------------------------------|
|--------------------------------------------|
|--------------------------------------------|
|-10\7-7-7-7-5---9-7----10\7-7-7-7-5---------|gtr 1&2
|--8\5-5-5-5-3p0-7-5-----8\5-5-5-5-3p0-2-3-2-|
|--------------------------------------0-1-0-|


Riff 2a
|--------------------------------------------------|
|--------------------------------------------------|
|--------------------------------------------------|
|--------------------------------------------------|gtr 1&2
|-555555554h55555555458888555555554h55555555875555-|
|--------------------------------------------------|


Riff 3
|-------------------------------------------|
|-------------------------------------------|
|-------------------------------------------|
|-777776667777777766677777777666777-8-7-8-7-|gtr 1
|-555554445555555544455555555444555-6-5-6-5-|
|-------------------------------------------|
|
|-------------------------------------------|
|-------------------------------------------|
|-------------------------------------------|
|-7-7-7------7-7-7------7-7-7-------8-7-8-7-|gtr 2
|-5-5-5------5-5-5------5-5-5-------6-5-6-5-|
|-------------------------------------------|



Riff 2b
|----------------------------------------------|
|----------------------------------------------|
|----------------------------------------------|
|----------------------------------------------|gtr 1&2
|-555555554p55555555458888555555554p5555555587-|
|----------------------------------------------|




Riff 4
|----------------------------------------------------------------|
|----------------------------------------------------------------|
|---------------a.h.-----------------a.h.-----------------a.h.---|
|-------------10----12-------------10----12-------------10----12-|gtr 1&2
|-8-10-8-7-----8----10-8-10-8-7-----8----10-8-10-8-7-----8----10-|
|-6--8-6-5-55----55----6--8-6-5-55----55----6--8-6-5-55----55----|
           ..    ..             ..    ..             ..    ..

|-----------------------------|
|-----------------------------|
|---------------a.h.----------|
|-------------10----12--------|gtr 1&2
|-8-10-8-7-----8----10-8-10-8-|
|-6--8-6-5-55----55----6--8-6-|
           ..    ..



Riff 5
|-------------------------------------------|
|-------------5-5-5-------------------------|
|-7-7-7-------6-6-6---7-7-7-------10-10-9-9-|
|-7-7-7-8-8-8-7-7-7---7-7-7-8-8-8-10-10-9-9-|gtr 1&2
|-5-5-5-8-8-8-7-7-7---5-5-5-8-8-8--8--8-7-7-|
|-------6-6-6-5-5-5---------6-6-6-----------|

|---------------------------------------|
|-------------5-5-5---------------------|
|-7-7-7-------6-6-6---7-7-7-------10-10-|
|-7-7-7-8-8-8-7-7-7---7-7-7-8-8-8-10-10-|gtr 1&2
|-5-5-5-8-8-8-7-7-7---5-5-5-8-8-8--8--8-|
|-------6-6-6-5-5-5---------6-6-6-------|


Riff 6             Riff 7
|--------------|  |--------------------------------|
|--------------|  |--------------------------------|
|--------------|  |--------------------------------|
|--------------|  |-----333333--333333--333333-----|gtr 1&2
|-7--6----7-10-|  |-5555------55------55------3333-|
|-5--4----5--8-|  |--------------------------------|



Riff 8                       Riff 9
|------------------------|  |-------------------|
|------------------------|  |-------------------|
|----3-----3-----3-------|  |-------------------|
|-5----5-4---4-3---3-2---|  |-------------------|gtr 1&2
|----------------------3-|  |-/3-3-3-0-/6-6-6-0-|
|------------------------|  |--.-.-.-.--.-.-.-.-|


Riff 10               Riff 11
|-----------------|  |--------------------------------|
|-----------------|  |--------------------------------|
|-----------------|  |--------------------------------|
|-5-5-5-5-----3-4-|  |--------------------------------|gtr 1&2
|-3-3-3-3-6-6-1-2-|  |-6-8-9---8---8--6-8-9---9-8-6-8-|
|---------4-4-----|  |-4-6-7-0-6-0-6--4-6-7-0-7-6-4-6-|

  Visit MetalTabs.com for more metal tablature

bottom separator

Contact Us | Privacy Policy | Disclaimer | Legal Notice
Copyright © 2001-2014 MetalTabs.com. All Rights Reserved.