top separator

Home

Forum

What's New

Submit a Tab

FAQ

Links

Contact Us

Link to Us

MetalTabs.com logo

Bands

0-9

A

B

C

D

E

F

G

H

I

J

K

L

M

N

O

P

Q

R

S

T

U

V

W

X

Y

Z

Search

What

Where
 

Samael - "Rite of Cthulhu" Guitar Tab

Plain Text Version
More Samael Tabs

Hits: 3831
Rated: 5.00 out of 5 (1 vote)
Updated: 2004-01-03 13:46:43

 

Important note
This tab is available online because we obtained explicit permission from Samael or their label.


#----------------------------------PLEASE NOTE---------------------------------#
#This file is the author's own work and represents their interpretation of the #
#song. You may only use this file for private study, scholarship, or research. #
#Unless specified otherwise, this is NOT an official tab from the band members.#
#------------------------------------------------------------------------------#

  Visit MetalTabs.com for more metal tablature
  
Band:  Samael
Album: Worship Him
Song:  Rite of Cthulhu
Transcribed By: James W.
Email: messiah_v187@yahoo.com

Ok, here's my more correct sounding tab for those of you who
aren't tone deaf. Listen to the song for correct timing and such.

.  - palm mute           /  - slide up to
\  - slide down to       "  - tremolo note

||   ||
||   ||
||. .|| - repeat brackets
||. .||   (repeat what's in them once
||   ||    unless specified otherwise)
||   ||

Standard Tuning

                                                        Play 4 times
|-------||---------------------------------------------------------||
|-------||---------------------------------------------------------||
|-------||.-------------------------------------------------------.||
|-------||.-------------------------------------------------------.||
|-------||---------------------------------------------------------||
|-2-----||----2/3----3/6----6\3---2/3\2----------------------------||
                                          Drums enter on third repeat


||--------------------------------|--------------------------------||
||--------------------------------|--------------------------------||
||.-------------------------------|-------------------------------.||
||.-------------------------------|-------------------------------.||
||---4-4-4-4-4-4-4-4-4-4-4-4-5-5--|--4-4-4-4-4-4-4-4-4-4-4-4-8-8---||
||---2-2-2-2-2-2-2-2-2-2-2-2-3-3--|--2-2-2-2-2-2-2-2-2-2-2-2-6-6---||
       . . .   . . .   . . .           . . .   . . .   . . .



|-------||---------------------------------------------------------||
|-------||---------------------------------------------------------||
|-------||.-------------------------------------------------------.||
|-------||.-------------------------------------------------------.||
|-------||---------------------------------------------------------||
|-2-----||----2/3----3/6----6\3---2/3\2----------------------------||



||--------------------------------|--------------------------------||
||--------------------------------|--------------------------------||
||.-------------------------------|-------------------------------.||
||.-------------------------------|-------------------------------.||
||---4-4-4-4-4-4-4-4-4-4-4-4-5-5--|--4-4-4-4-4-4-4-4-4-4-4-4-8-8---||
||---2-2-2-2-2-2-2-2-2-2-2-2-3-3--|--2-2-2-2-2-2-2-2-2-2-2-2-6-6---||
       . . .   . . .   . . .           . . .   . . .   . . .


                                                        Play 3 times
||--------------------------------|--------------------------------||
||--------------------------------|--------------------------------||
||.-------------------------------|-------------------------------.||
||.-------------------------------|-------------------------------.||
||---4-4-4-4-4-4-4-4-4-4-4-4-5-5--|--4-4-4-4-4-4-4-4-4-4-4-4-8-8---||
||---2-2-2-2-2-2-2-2-2-2-2-2-3-3--|--2-2-2-2-2-2-2-2-2-2-2-2-6-6---||
       . . . . . . . . . . .           . . . . . . . . . . .
                                 On third repeat, begin slow fade out


||--------------------------------|--------------------------------||
||--------------------------------|--------------------------------||
||.-------------------------------|-------------------------------.||
||.-------------------------------|-------------------------------.||
||------4-4"-----------------5-5--|--4-4"--------------------8-8---||
||------2-2"-----------------3-3--|--2-2"--------------------6-6---||
          .                            .
                                                 ( " = Tremelo notes)

                                                Repeat until fade out

  Visit MetalTabs.com for more metal tablature

bottom separator

Contact Us | Privacy Policy | Disclaimer | Legal Notice
Copyright © 2001-2014 MetalTabs.com. All Rights Reserved.