top separator

Home

Forum

What's New

Submit a Tab

FAQ

Links

Contact Us

Link to Us

MetalTabs.com logo

Bands

0-9

A

B

C

D

E

F

G

H

I

J

K

L

M

N

O

P

Q

R

S

T

U

V

W

X

Y

Z

Search

What

Where
 

Dawn - "Vya Kal" Guitar Tab

Plain Text Version
More Dawn Tabs

Hits: 4115
Rated: 5.00 out of 5 (1 vote)
Updated: 2004-01-03 13:27:50

 

Important note
This tab is available online because we obtained explicit permission from Dawn or their label.


#----------------------------------PLEASE NOTE---------------------------------#
#This file is the author's own work and represents their interpretation of the #
#song. You may only use this file for private study, scholarship, or research. #
#Unless specified otherwise, this is NOT an official tab from the band members.#
#------------------------------------------------------------------------------#

  Visit MetalTabs.com for more metal tablature
  
Band:  Dawn
Album: Sorgh Pa Svarte Vingar Fløgh
Song:  Vya Kal

Transcribed By: Henrik Ekholm
Email:          henrikekholm@hotmail.com

1 - Ring out                    u  - upstroke
.  - palm mute                  /  - slide up to
\  - slide down to              ~  - vibrato
h  - hammer on                  b  - bend
p  - pull off                        Suffixes for bend
ph - pinch harmonic                      f - full bend    h - half bend
*  - see comment                         r - release      t - tap bend
X  - percussion mute                     ~ - vibrato bend
@  - slight palm mute           # - ghost note, sustained note
d  - downstroke

Part A
e|----------------------------------------------|
B|----9-7-9-----------------7---------9-7-------|
G|----------6--8-9-8-6-8-----9-8-9-6------9-8\-5|
D|-----------------------6----------------------|
A|--------------------------7---------6---------|
E|-9--------------------------------------------|
   1                        1         1

Part B
e|----------------------------------------------------|
B|----5-------------5--7-4------5-------------5--4----|
G|---6-6-6h8p6-6---6-6--6-6----6-6-6h8p6-6---6-6--5---|
D|------------7-------------------------7----------6--|
A|-4--------------4----------7--------------7-------6-|
E|----------------------------------------------------|
   1              1          1              1


Ending
e|-----------------------------------------------|
B|---4-------------------------------------------|
G|-56-5-56---------------------------------------|
D|--------6-7-4-6---4---2---1-------------6------|
A|----------------5---6---4---3-4-----4-6---6--4-|
E|---------------------------------4-------------|


Structure
-----------
Part A:    X5
Part B:    X4
Ending :   X1

  Visit MetalTabs.com for more metal tablature

bottom separator

Contact Us | Privacy Policy | Disclaimer | Legal Notice
Copyright © 2001-2014 MetalTabs.com. All Rights Reserved.