top separator

Home

Forum

What's New

Submit a Tab

FAQ

Links

Contact Us

Link to Us

MuSpy.com

MetalTabs.com logo

Bands

0-9

A

B

C

D

E

F

G

H

I

J

K

L

M

N

O

P

Q

R

S

T

U

V

W

X

Y

Z

Search

What

Where
 

Katatonia - "Stalemate" Guitar Tab

Plain Text Version
More Katatonia Tabs

Hits: 4796
Updated: 2004-01-03 13:19:27

 

Important note
This tab is available online because we obtained explicit permission from Katatonia or their label.


#----------------------------------PLEASE NOTE---------------------------------#
#This file is the author's own work and represents their interpretation of the #
#song. You may only use this file for private study, scholarship, or research. #
#Unless specified otherwise, this is NOT an official tab from the band members.#
#------------------------------------------------------------------------------#

  Visit MetalTabs.com for more metal tablature
  
Song: Stalemate
Artist: Katatonia
Album: Discouraged Ones
Tabbed by: The Onion Meister <onion_meister@hotmail.com>

legend: d = down pick
	u = up pick
	b = bend to the sound of #
	x = muffle, mute strings
	/ = slide up the neck
	\ = slide down the neck

riff 1

guitar 1

       du
eb|---------------|
Bb|---------------|
Gb|---------------|
Db|---------------|
Ab|-44-xx-444-7/6-|
Eb|-44-xx-444-7/6-|

guitar 2

eb|-----------------------------------------------------------------|
Bb|-----------------------------------------------------------------|
Gb|-8b9-8b9-8b9-8b9-8b9-8b9-8b9-8b9-8b9-8b9-8b9-8b9-8b9-8b9-8b9-8b9-|
Db|-----------------------------------------------------------------|
Ab|-----------------------------------------------------------------|
Eb|-----------------------------------------------------------------|

riff 2

guitar 1

eb|--------------------------|
Bb|--------------------------|
Gb|---1212-------------------|
Db|-9-1212-14-14141414141414-|
Ab|-9-1010-14-14141414141414-|
Eb|-7------12-12121212121212-|

guitar 2

eb|-------------------------------|
Bb|-------------------------------|
Gb|-9~/16-16161616-161616161616\--|
Db|-------------------------------|
Ab|-------------------------------|
Eb|-------------------------------|

riff 3

guitar 1

eb|-------------------------------------|
Bb|-------------------------------------|
Gb|-66666----6--------------------------|
Db|-66666-77-6-77777777777777-6-6666666-|
Ab|-44444-77-4-77777777777777-6-6666666-|
Eb|-------55---55555555555555-4-4444444-|

guitar 2

eb|-----------------------------------------------------------------------|
Bb|-----------------------------------------------------------------------|
Gb|-131313-1212------12---------------------------------------------------|
Db|-------------1414----14141414141414-13131313131313-11-11111111---------|
Ab|---------------------------------------------------------------1414-13-|
Eb|-----------------------------------------------------------------------|

riff 4

guitar 1 (clean)

eb|-------|
Bb|-------|
Gb|-------|
Db|-----6-| (not 100% sure if it's this)
Ab|---4---|
Eb|-4-----|

guitar 2

eb|---|
Bb|---|
Gb|---|
Db|---|
Ab|-4-|
Eb|-4-|

riff 5

guitar 1 (clean)

eb|----------|
Bb|----------|
Gb|-------13-|
Db|----11----| (not 100% sure if it's this)
Ab|-11-------|
Eb|----------|

  Visit MetalTabs.com for more metal tablature

bottom separator

Contact Us | Privacy Policy | Disclaimer | Legal Notice
Copyright © 2001-2014 MetalTabs.com. All Rights Reserved.