top separator

Home

Forum

What's New

Submit a Tab

FAQ

Links

Contact Us

Link to Us

MuSpy.com

MetalTabs.com logo

Bands

0-9

A

B

C

D

E

F

G

H

I

J

K

L

M

N

O

P

Q

R

S

T

U

V

W

X

Y

Z

Search

What

Where
 

Katatonia - "I break" Guitar Tab

Plain Text Version
More Katatonia Tabs

Hits: 4799
Updated: 2004-01-03 13:18:39

 

Important note
This tab is available online because we obtained explicit permission from Katatonia or their label.


#----------------------------------PLEASE NOTE---------------------------------#
#This file is the author's own work and represents their interpretation of the #
#song. You may only use this file for private study, scholarship, or research. #
#Unless specified otherwise, this is NOT an official tab from the band members.#
#------------------------------------------------------------------------------#

  Visit MetalTabs.com for more metal tablature
  
Song: I Break
Artist: Katatonia
Album: Discouraged Ones
Tabbed by: The Onion Meister <onion_meister@hotmail.com>

legend: / = slide
	~ = let ring

riff 1

guitar 1

eb|----------------------------------|
Bb|----------------------------------|
Gb|----------------------------------|
Db|-222222222222-5-7777777-5555-7777-|
Ab|-222222222222-5-7777777-5555-7777-|
Eb|-000000000000-3-5555555-3333-5555-|

guitar 2		 (first time)		 (second time)

eb|------------------|--------------------|-------------------------|
Bb|------------------|--------------------|-------------------------|
Gb|------------------|--------------------|-------------------------|
Db|-22222-5-44444444-|-4444444-5555-00000-|-/1010101010\5-4-4444444-|
Ab|------------------|--------------------|-------------------------|
Eb|------------------|--------------------|-------------------------|

riff 2

guitar 1

eb|---------------------------|
Bb|---------------------------|
Gb|-66-66-666-----------------|
Db|-66-66-666-4-4-4-44-4-4-44-|
Ab|-44-44-444-4-4-4-44-4-4-44-|
Eb|-----------2-2-2-22-2-2-22-|

guitar 2

eb|-------------------|
Bb|-------------------|
Gb|-8~--8-8-8-88-9-7~-|            you can mix guitar 2 and 3
Db|-------------------|            by sliding into the 16 after
Ab|-------------------|            the 8
Eb|-------------------|

guitar 3

eb|-----------------------|
Bb|-----------------------|
Gb|-#---#-#-#-1616-18-----|
Db|-------------------19~-|
Ab|-----------------------|
Eb|-----------------------|

riff 3

guitar 1 & 2

eb|-----------------------------------------------------|
Bb|-----------------------------------------------------|
Gb|-99999999------------------121212-99999-101010-99999-|
Db|-99999999-1010101010101010-121212-99999-101010-99999-|
Ab|-77777777-1010101010101010-101010-77777-8-8-8--77777-|
Eb|----------8-8-8-8-8-8-8-8----------------------------|

riff 4

guitar 1

eb|---------------------------------------|
Bb|---------------------------------------|
Gb|-999999999999-9------------------------|
Db|-999999999999-9-99-10-2222222222222222-|
Ab|-777777777777-7-99-10-2222222222222222-|
Eb|----------------77-8--0000000000000000-|

guitar 2

eb|---------------------------------------|
Bb|--------1212---------------------------|
Gb|-111111------1414-1111-1212-1111111111-|
Db|---------------------------------------| (1)
Ab|---------------------------------------|
Eb|---------------------------------------|

eb|-------------------------------------|
Bb|-------------------------------------|
Gb|-1111111111111111-11-1212-1111111111-|
Db|-------------------------------------| (2)
Ab|-------------------------------------|
Eb|-------------------------------------|

riff 5

guitar 1 (clean)

eb|----------------|
Bb|--------------5-|
Gb|------------5---|
Db|-----9----9-----|
Ab|---7----5-------|
Eb|-0--------------|

guitar 2

eb|----|
Bb|----|
Gb|----|
Db|-2~-| let feedback
Ab|-2~-|
Eb|-0~-|

  Visit MetalTabs.com for more metal tablature

bottom separator

Contact Us | Privacy Policy | Disclaimer | Legal Notice
Copyright © 2001-2014 MetalTabs.com. All Rights Reserved.