top separator

Home

Forum

What's New

Submit a Tab

FAQ

Links

Contact Us

Link to Us

MuSpy.com

MetalTabs.com logo

Bands

0-9

A

B

C

D

E

F

G

H

I

J

K

L

M

N

O

P

Q

R

S

T

U

V

W

X

Y

Z

Search

What

Where
 

Accidental Suicide - "Flesh Parade" Guitar Tab

Plain Text Version
More Accidental Suicide Tabs

Hits: 3086
Updated: 2004-01-03 06:52:55

 

By:

BestialWarrior

sendpm.gif

email.gif

Important note
We did our best to reach Accidental Suicide and ask for their permission to publish this tab. Unfortunately they did not respond to our requests or we could not find a way to contact them. This tab is available online until Accidental Suicide tells us to take it down.


#----------------------------------PLEASE NOTE---------------------------------#
#This file is the author's own work and represents their interpretation of the #
#song. You may only use this file for private study, scholarship, or research. #
#Unless specified otherwise, this is NOT an official tab from the band members.#
#------------------------------------------------------------------------------#

  Visit MetalTabs.com for more metal tablature
  
Band:  (Accidental Suicide)
Album: (Deceased)
Song:  (Flesh Parade)

Copyright (c)  (Deaf Records/Peaceville) (1993)
Version 1.0 - (June)

Transcribed By: (BestialWarrior)
Email:          (Bestialson2003@yahoo.com)


.  - palm mute           /  - slide up to
\  - slide down to       ~  - vibrato
h  - hammer on           b  - Bend
p  - pull off            Suffixes for bend
t  - tap                 f  - full bend    h - half bend
ph - pinched harmonic    q  - quarter bend t - tap bend
*  - see comment         ^  - Hold bend    r release bend
x  - Stuccatto           ~  - vibrato bend
,  - slight palm mute    () - ghost note, sustained note
"  - tremolo note        <> - Trill
G= Gallop.

Tunning: Dropped C.

Riff #1.Slight Palm mute. Play for 6 times.
|-----------------------------------|
|-----------------------------------|
|-----------------------------------|
|-----------------------------------|
|555---------444---------333--------|
|----666-555-----555-444-----000-222|
  G   G   G   G   G   G   G   G   G
Riff#2. Slow/Heavy. Chords are 1/2 notes. Play for 4 times.
|---------------------|
|---------------------|
|---------------------|
|------4---------1----|
|-2----2----2----1----|
|-3----2----3---------|

Riff#3.Mid-paced/heavy..Play for 8 times.
|---------------------------------|
|---------------------------------|
|---------------------------------|
|----------------------------1----|
|2-------3-----2---2---2-2-3-1----|
|0-0-0-0-1-0-0-0-0-0-0-0-0-1------|
   . . .   . .   .   .   . .

Riff#4. Slow. Play for 6 times.
|-------------------|
|-------------------|
|-------------------|
|2--------1----2----|
|2--------1----053--|
|0--------------31--|

Riff#5.Slow. Play for 4 times. 1/2 note chords.except for last three chords(quarter note)
|-------------------------|
|-------------------------|
|-------------------------|
|2---------5--------------|
|2----2----3----2----221--|
|0----3----3----3----332--|
                     ..*
*= let that last chord(2/1) ring on the 4th time for aprox 4 seconds..then play
the next riff:
Riff#6.slow
|------------------------------------------------------------|
|------------------------------------------------------------|
|------------------------------------------------------------|
|----3-------------3-------------2---------------2-----------|
|--3---3-4-------3---3-4-------2---2-3---------2---2-3-------|
|2---------4-5-2---------4-5-1---------3-4-3-1---------3-4-3-|

Riff#7. Same notes as #6, just grind...!Slight palm mute..
                *(Play 2 times)                              *(Play 2 times)
|---------------------------------------------------------|--------------------------------------------|
|---------------------------------------------------------|--------------------------------------------|
|---------------------------------------------------------|--------------------------------------------|
|--------3333-------------------------3333----------------|--------2222----------------------------2222|
|----3333----33334444------------33333----33334444--------|----2222----22223333----------------2222----|
|2222----------------444455552222-----------------44445555|1111----------------3333444433331111--------|
 ......................................................... ..........................................
Riff#7. Continued...
|---------------------|
|---------------------|
|---------------------|
|---------------------|
|22223333-------------|
|--------333344443333-|
 ....................
Riff#8. Fast/Grindish like...
|-----------------------------------------------------|
|-----------------------------------------------------|
|-----------------------------------------------------|
|-----------------------------------------------------|
|------------------22221111---------------------------|
|000000000000111111--------22222222222211111144443333-|


Ending lyric....."Flesh Parade".....ha ha ha ha haha....
End.


Note:cool thing about this tune is that it's pretty basic but yet somewhat
disturbing(music-wise), And no repeating riffs..  This tune flows real smooth.
It's one of my fav's on this old tape of the band that I have.  I don't even
remember the real music label or most of the tunes.  I only remember the name
of this song.! Luckily, being one of my fav's, the band didn't make it too far.
I think they only have one other cd besides this one that they made.  This is a
rare treat.  If anyone else knows who this band is, please contact me!!.
I need other info on this band..!...  Death metal Lives......!

  Visit MetalTabs.com for more metal tablature

bottom separator

Contact Us | Privacy Policy | Disclaimer | Legal Notice
Copyright © 2001-2014 MetalTabs.com. All Rights Reserved.