top separator

Home

Forum

FAQ

Contact Us

Link to Us

MetalTabs.com logo

Bands

0-9

A

B

C

D

E

F

G

H

I

J

K

L

M

N

O

P

Q

R

S

T

U

V

W

X

Y

Z

Sepultura - "Apes Of God" Guitar Tab

Plain Text Version
More Sepultura Tabs

Hits: 4517
Rated: 2.00 out of 5 (3 votes)
Updated: 2004-01-03 06:33:02

By:

One Man Army


#----------------------------------PLEASE NOTE---------------------------------#
#This file is the author's own work and represents their interpretation of the #
#song. You may only use this file for private study, scholarship, or research. #
#Unless specified otherwise, this is NOT an official tab from the band members.#
#------------------------------------------------------------------------------#

  Visit MetalTabs.com for more metal tablature
  
Song: Apes of God
Artist: Sepultura
Album: Roorback
Tuning: Bb Eb Ab Db F Bb  = six steps down (low to high)
by Christoph Thiele
ddevil01@gmx.de

~= let ring

Intro: 0:00-0:21 sound effects

Riff 1    Pt. II
|---------|--------|
|---------|--------|
|---------|--------|
|-7-7-7-6-|8-7-7-6-|    Note: donít strike these notes like normal. listen
|-x-x-x-x-|x-x-x-x-|    to the record and youíll hear that Andreas plays
|-5-5-5-4-|6-5-5-4-|    kind of pull offs each time.

Riff 2a

|--------------------|
|--------------------|
|--------------------|
|--------------------|
|--------------------|
|-555565555455554444-|

Riff 2b

|--------------------|
|--------------------|
|--------------------|
|--------------------|
|--------------------|
|-555565555455555555-|

Riff 3a

|-----------------------------|
|-----------------------------|
|-----------------------------|
|-1010101010-99999-77777-6666-|
|-x-x-x-x-x--xxxxx-xxxxx-xxxx-|
|-8-8-8-8-8--77777-55555-4444-|

Riff 3b

|---------------------------------|
|---------------------------------|
|---------------------------------|
|-1010101010-99999-77777-13131313-|
|-x-x-x-x-x--xxxxx-xxxxx-x-x-x-x--|
|-8-8-8-8-8--77777-55555-11111111-|

Riff 3c

|--------------------------|
|--------------------------|
|--------------------------|
|-1010101010-99999-6666666-|
|-x-x-x-x-x--xxxxx-xxxxxxx-|
|-8-8-8-8-8--77777-4444444-|

Fill
|----------------------|
|----------------------|
|----------------------|
|-66666666666666666666-|
|-xxxxxxxxxxxxxxxxxxxx-|
|-44444444444444444444-|

Fill II

|-----|
|-----|
|-----|
|-----|
|-7~~-|
|-5~~-|

Riff 4a

|-----------------------------|
|-----------------------------|
|-----------------------------|
|-7--8--7--8--7--8--1110-10-8-|
|-x--x--x--x--x--x--x-x--x--x-|
|-5--6--5--6--5--6--9-8--8--6-|

Riff 4b

|-------------------------------|
|-------------------------------|
|-------------------------------|
|-7--8--7--8--7--8--101110-10-8-|
|-x--x--x--x--x--x--x-x-x--x--x-|
|-5--6--5--6--5--6--8-9-8--8--6-|

Riff 4c

|------------------------------|
|------------------------------|
|------------------------------|
|-7--8--7--8--7--8--101110-----|
|-x--x--x--x--x--x--x-x-x--8-6-|
|-5--6--5--6--5--6--8-9-8--6-4-|

Order:
Intro
Riff 1  x1  2 gtrs.
Riff 1 Pt. II x6 2 gtrs.
Riff 2  x2  1 gtr.
Riff 2  x4  2 gtrs.
Riff 2  x2  1 gtr.
Riff 2  x4  2 gtrs.
Riff 1  x1  2 gtrs.
Riff 1 Pt. II x6 2 gtrs.
Riff 3a x1  2 gtrs.
Riff 3b x1  2 gtrs.
Riff 3a x1  2 gtrs.
Riff 3b x1  2 gtrs.
Riff 2  x4  2 gtrs.
Riff 2b x2  2 gtrs.
Riff 2  x2  2 gtrs.
Riff 3a x1  2 gtrs.
Riff 3b x1 2 gtrs.
Riff 3a x1 2 gtrs.
Riff 3b x1 2 gtrs.
Riff 3c x4 1 gtr.  gtr. 1 plays Solo
Fill    x1 1 gtr.
Fill II x1 1 gtr.
Riff 4a x1 2 gtrs.
Riff 4b x1 2 gtrs.
Riff 4a x1 2 gtrs.
Riff 4b x1 2 gtrs.
Riff 4a x1 2 gtrs.
Riff 4c x1 2 gtrs.

  Visit MetalTabs.com for more metal tablature

bottom separator

Contact Us | Privacy Policy | Disclaimer
Copyright © 2001-2014 MetalTabs.com. All Rights Reserved.