top separator

Home

Forum

What's New

Submit a Tab

FAQ

Links

Contact Us

Link to Us

MuSpy.com

MetalTabs.com logo

Bands

0-9

A

B

C

D

E

F

G

H

I

J

K

L

M

N

O

P

Q

R

S

T

U

V

W

X

Y

Z

Search

What

Where
 

My Dying Bride - "Black God" Guitar Tab

Plain Text Version
More My Dying Bride Tabs

Hits: 4718
Updated: 2001-06-04 08:02:37

 

Important note
This tab is available online because we obtained explicit permission from My Dying Bride or their label.


#----------------------------------PLEASE NOTE---------------------------------#
#This file is the author's own work and represents their interpretation of the #
#song. You may only use this file for private study, scholarship, or research. #
#Unless specified otherwise, this is NOT an official tab from the band members.#
#------------------------------------------------------------------------------#

  Visit MetalTabs.com for more metal tablature
  
Taken with permission from www.MyDyingBride.org

Note: This is actually keyboards arranged for guitar.  This is the
main keyboard riff that is played throughout the whole song.  I've
included two ways to play this.  The first version is easier to play but
the second one sounds much fuller.  Finger picking is recommended.  The
first riff would probably sound good on a 12-string as well.

First version:
e|---------------------------------------------|
B|---------------------------------------------|
G|--------------------------3--2--0--2---------|
D|-------------3--2----0-----------------------|
A|--0----2--3----------------------------------|
E|---------------------------------------------|

Second version:
e|--0----2--3--8--7----5---11--10--8--10-------|
B|---------------------------------------------|
G|---------------------------------------------|
D|---------------------------------------------|
A|---------------------------------------------|
E|--0----2--3--8--7----5---11--10--8--10-------|

Transcribed by DarkDread (darkdread@hotmail.com)

  Visit MetalTabs.com for more metal tablature

bottom separator

Contact Us | Privacy Policy | Disclaimer | Legal Notice
Copyright © 2001-2014 MetalTabs.com. All Rights Reserved.