top separator

Home

Forum

What's New

Submit a Tab

FAQ

Links

Contact Us

Link to Us

MetalTabs.com logo

Bands

0-9

A

B

C

D

E

F

G

H

I

J

K

L

M

N

O

P

Q

R

S

T

U

V

W

X

Y

Z

Search

What

Where
 

Shining of Kliffoth - "All is blind" Guitar Tab

Plain Text Version
More Shining of Kliffoth Tabs

Hits: 3847
Rated: 4.00 out of 5 (1 vote)
Updated: 2004-01-03 06:23:32

 

By:

Darkenelf

sendpm.gif

email.gif

Important note
We did our best to reach Shining of Kliffoth and ask for their permission to publish this tab. Unfortunately they did not respond to our requests or we could not find a way to contact them. This tab is available online until Shining of Kliffoth tells us to take it down.


#----------------------------------PLEASE NOTE---------------------------------#
#This file is the author's own work and represents their interpretation of the #
#song. You may only use this file for private study, scholarship, or research. #
#Unless specified otherwise, this is NOT an official tab from the band members.#
#------------------------------------------------------------------------------#

  Visit MetalTabs.com for more metal tablature
  
Band: Shining of Kliffoth
Album: Suicide Kings
Song: All is Blind
Tabbed by: Martijn Wietsma (Darkenelf)
Tab Date: 13-12-2003
Email: northerland@yahoo.co.uk
Version 0.1

Standard E Tuning

Keyboard intro's


riff A (1:27)
|--------------------------------------------------------------|
|--------------------------------------------------------------|
|---4-4------------4-4------------4-4------------4-4-----------|
|-0-2-2--5-5-5---0-2-2--5-5-5---0-2-2--5-5-5---0-2-2--5-5-5----|
|--------3-3-3----------3-3-3----------3-3-3----------3-3-3----|
|--------------------------------------------------------------|

|----------------------------------------------------------------|
|----------------------------------------------------------------|
|---4-4------------4-4------------4-4------------4-4------------4|
|-0-2-2--5-5-5---0-2-2--5-5-5---0-2-2--5-5-5---0-2-2--5-5-5---0-2|
|--------3-3-3----------3-3-3----------3-3-3----------3-3-3------|
|----------------------------------------------------------------|

riff B (1:47)
|--------------------------------------------------------------|
|--------------------------------------------------------------|
|--------------------------------------------------------------|
|-22222222-3333-------22222222-3333-5555-----------------------|
|---------------5555-------------------------------------------|
|--------------------------------------------------------------|

|--------------------------------------------------------------|
|--------------------------------------------------------------|
|--------------------------------------------------------------|
|-22222222-3333------------------------------------------------|
|---------------5555--3333-2222-3-5----------------------------|
|--------------------------------------------------------------|
							(4x)
riff C
|--------------------------------------------------------------|
|--------------------------------------------------------------|
|------------------------4-2-----------------------------------|
|-2-4-5---------2-4-5--0--------2-4-5---------2-4-5--2---------|
|--------0-3-5-------------------------0-3-5-----------5-3-----|
|--------------------------------------------------------------|
							(4x)
riff D (2:46) (just a guess of the riff)
|--------------------------------------------------------------|
|--------------------------------------------------------------|
|--------------------------------------------------------------|
|-------2h3p2h----------2h3p2h5--------2h3p2h----------------5-|
|-00000--------5--00000----------00000--------5--33333-3h5p3---|
|--------------------------------------------------------------|
  pm...           .....          .....           .....

riff C
|--------------------------------------------------------------|
|--------------------------------------------------------------|
|------------------------4-2-----------------------------------|
|-2-4-5---------2-4-5--0--------2-4-5---------2-4-5--2---------|
|--------0-3-5-------------------------0-3-5-----------5-3-----|
|--------------------------------------------------------------|
							(4x)
riff B
|--------------------------------------------------------------|
|--------------------------------------------------------------|
|--------------------------------------------------------------|
|-22222222-3333-------22222222-3333-5555-----------------------|
|---------------5555-------------------------------------------|
|--------------------------------------------------------------|

|--------------------------------------------------------------|
|--------------------------------------------------------------|
|--------------------------------------------------------------|
|-22222222-3333------------------------------------------------|
|---------------5555--3333-2222-3-5----------------------------|
|--------------------------------------------------------------|
							(4x)

riff E (3:46)
|--------------------------------------------------------------|
|--------------------------------------------------------------|
|---------------------------------3----------------------------|
|---2h3---3-2h3p2-------3-5h6-5h6---6p5-3h---------------------|
|-5-----5---------5p3----------------------6-------------------|
|--------------------------------------------------------------|
							(2x)
riff F (4:00) (guess of the riff as well)
|--------------------------------------------------------------|
|--------------------------------------------------------------|
|--------------------------------------------33----------------|
|------2233----33-223322-------3333-55665566----665533---------|
|-5555------55-----------5533--------------------------66------|
|--------------------------------------------------------------|
							(2x)
riff E
|--------------------------------------------------------------|
|--------------------------------------------------------------|
|---------------------------------3----------------------------|
|---2h3---3-2h3p2-------3-5h6-5h6---6p5-3h---------------------|
|-5-----5---------5p3----------------------6-------------------|
|--------------------------------------------------------------|
							(2x)
riff F (4:24)
|--------------------------------------------------------------|
|--------------------------------------------------------------|
|--------------------------------------------33----------------|
|------2233----33-223322-------3333-55665566----665533---------|
|-5555------55-----------5533--------------------------66------|
|--------------------------------------------------------------|
							(2x)
riff B (4:35)
|--------------------------------------------------------------|
|--------------------------------------------------------------|
|--------------------------------------------------------------|
|-22222222-3333-------22222222-3333-5555-----------------------|
|---------------5555-------------------------------------------|
|--------------------------------------------------------------|

|--------------------------------------------------------------|
|--------------------------------------------------------------|
|--------------------------------------------------------------|
|-22222222-3333------------------------------------------------|
|---------------5555--3333-2222-3-5----------------------------|
|--------------------------------------------------------------|
							(4x)
riff A (5:00)
|--------------------------------------------------------------|
|--------------------------------------------------------------|
|---4-4------------4-4------------4-4------------4-4-----------|
|-0-2-2--5-5-5---0-2-2--5-5-5---0-2-2--5-5-5---0-2-2--5-5-5----|
|--------3-3-3----------3-3-3----------3-3-3----------3-3-3----|
|--------------------------------------------------------------|

|----------------------------------------------------------------|
|----------------------------------------------------------------|
|---4-4------------4-4------------4-4------------4-4------------4|
|-0-2-2--5-5-5---0-2-2--5-5-5---0-2-2--5-5-5---0-2-2--5-5-5---0-2|
|--------3-3-3----------3-3-3----------3-3-3----------3-3-3------|
|----------------------------------------------------------------|

Riff G (5:17) (ending riff)
|--------------------------------------------------------------|
|--------------------------------------------------------------|
|-4-----4-----4-----4-----4~~----------------------------------|
|-2-5---2-5---2-5---2-5---2~~----------------------------------|
|---3-----3-----3-----3----------------------------------------|
|--------------------------------------------------------------|

  Visit MetalTabs.com for more metal tablature

bottom separator

Contact Us | Privacy Policy | Disclaimer | Legal Notice
Copyright © 2001-2014 MetalTabs.com. All Rights Reserved.