top separator

Home

Forum

FAQ

Contact Us

Link to Us

MetalTabs.com logo

Bands

0-9

A

B

C

D

E

F

G

H

I

J

K

L

M

N

O

P

Q

R

S

T

U

V

W

X

Y

Z

Dream Theater - "Peruvian Skies" Guitar Tab

Plain Text Version
More Dream Theater Tabs

Hits: 7449
Rated: 4.38 out of 5 (13 votes)
Updated: 2004-01-03 06:17:02

By:

Corpsevomit98


#----------------------------------PLEASE NOTE---------------------------------#
#This file is the author's own work and represents their interpretation of the #
#song. You may only use this file for private study, scholarship, or research. #
#Unless specified otherwise, this is NOT an official tab from the band members.#
#------------------------------------------------------------------------------#

  Visit MetalTabs.com for more metal tablature
  
Band:  Dream Theatre
Album: Falling Into Infinty
Song:  Peruvian Skies

Copyright   Warner Bros Music
Version 1.0  November 8, 2003

Transcribed By: John the Unholy
Email:          Corpsevomit98@hotmail.com

All guitars at normal tuning
Guitar 3  12 string acoustic

..  - palm mute          /  - slide up to
 \  - slide down to      ~  - vibrato
 h  - hammer on          b  - bend
 p  - pull off            Suffixes for bend
                          ph - pinch harmonic
<> trill                   f - full bend    h - half bend
*  - see comment           r - release      t - tap bend
X  - percussion mute       ~ - vibrato bend
@  - slight palm mute

Intro
gtrs 1 & 2					1st time
|---------------------------------------------------------------
|---------------------------------------------------------------
|--------0---------------0--(2)--------0------------------------
|----------2------------------------------2---------------------
|---2h4--------1---2h4-------------2h4-------1----2-4-3-----2---
|-0--------------0---------3-2---0--------------0--------2-1----
*notes in parenthesis are played by guitar one only

-----------------------------------------------------------------|
-----------------------------------------------------------------|
---------0---------------0--(2)--------0-------------------------|
-----------2----------------------------------3------------------|
----2h4--------1---2h4-------------2h4------3-------2-4-3-----2--|
--0--------------0---------3-2---0--------1-------0--------2-1---|

gtr 3
|-------3-------------3--------------3--------------
|---------5----------------------------5------------
|---4h6----------4h5-------------4h6----------------
|---------------------------------------------------
|---------------------------------------------------
|---------------------------------------------------

Verse
gtrs 1 & 2
|----------------|------------------------|-----------------------------0--|
|----------------|------------------------|--------------------------0-----|
|--------0-------|---------0--------------|-------------0------6b7---------|
|----------(5)---|-----------2------------|------------------5-------------|
|---2h4----------|-----2h4---------5----5-|--------2h4---------------------|
|-0--------------|--0------------3----2---|----0---------------------------|

|------------------------------|----------------12\--|---------------------0-|
|------------------------------|---------------------|-------------------0---|
|------0-----------------------|---------0-----------|--------0-----6b7------|
|--------2--------0------2-----|---------------------|------------5----------|
|--2h4----------2------2-------|----2h4--------------|----2h4----------------|
|-------------3------2------2--|--0------------------|--0--------------------|
|
|-----------------------------|
|-----------------------------|
|-----0-----------------------|
|-------2---------0------2----|
|-2h4-----------2------2------|
|-------------3------2-----2--|

Chorus
gtrs 1 & 2
|----------------0---------------|----------------------------------|
|---------------------------1----|--------------------0----3/5\3--0-|
|-----------4---------4----------|--------------0----------2/4\2----|
|------2-------------------------|-----------4-----2----------------|
|-0------------------------------|-------2--------------------------|
|--------------------------------|-0--------------------------------|
|		                                         1st time
|----------------3---------------|----------2-------2h3p2-----------|
|-----------3---------3----------|--------------2--------3h5h3------|
|------4-------------------------|------2---------------------2h4h2-|
|--------------------------------|-0--------------------------------|
|---------------------------5----|----------------------------------|
|--------------------------------|----------------------------------|
|2nd time	      |---harmonics---|
|-----------2--------------------|----------2-----------|
|----------------------7---------|---------------4p2----|
|------2--------5-------------7--|----------------------|
|-0------------------------------|------2---------------|
|--------------------------------|-0--------------------|
|--------------------------------|----------------------|
|1st time				    2nd time
|---------------0-----0----------|---------------------------------|
|---------------3/5---3----------|-8---8-----8---------------------|
|-0-----------------------2p0----|-7h9-7-----7---------------------|
|------4----2------------------2-|--------9-----9\7--5-------------|
|--------------------------------|----------------------7---(7)\---|
|--------------------------------|---------------------------------|
|
|---------------3----------------|---------------------------------|
|-----------3-------------3------|---------------------------------|
|--------------------------------|---------------0-----0-----------|
|------0-------------0-----------|------3---3--------------3-------|
|--------------------------------|--3----------------------------3-|
|--------------------------------|---------------------------------|
|											 |
|------------------0-------------|---------------------0-----------|
|-----------1------------1-------|-------------1-----------1-------|
|-----------------------------2--|----------2------2------------2--|
|------2-------------------------|-------2-------------------------|
|-0------------------------------|---------------------------------|
|--------------------------------|-3-------------------------------|
|
|-----------------------0---------|--------------------------------|
|--------------1------------1-----|------------1-------------------|
|----------2-------2------------2-|-------2------------------------|
|------2--------------------------|--3-----------------------------|
|---------------------------------|--------------------------------|
|-2-------------------------------|--------------------------------|

Bridge
Gtrs 1 &2
|------------------------------|
|------------------------------|
|------------------------------|
|------------------------------|
|--------------------5-7-9-----|
|-0----2-35---/7-8----------7-|


Solo w/dist and wah                          Am			     C
|----------------|------------------------------------------------------------|
|----------------|-10---------8b10---8p6----<5h6>----5------------------------|
|--------9-10-12-|-----------------------------------------5---10b12-----9----|
|8-10-12---------|------------------------------------------------------------|
|----------------|------------------------------------------------------------|
|----------------|------------------------------------------------------------|
|											            |
| G					   Dm						Am	      |
|-----------------------------------------------------------------------------|
|-------------------------8------10----------/10------10--------10h13---------|
|-9p7---------------7--------7--------------------10-------10-----------------|
|-------------9--------9------------------------------------------------------|
|---------/10---10------------------------------------------------------------|
|-----------------------------------------------------------------------------|
|													|
|		     C	 	     Bb 							|
|-----------------------------------------------------------------------------|
|----------------13-----1315-1717b18------15--------------------------17-18-|
|--------/12---------------------------------------------------15-17-19-------|
|-----------------------------------------------------15-17-19----------------|
|---------------------------------------------------19------------------------|
|-----------------------------------------------------------------------------|
|													|
|   Dm				   Dm/C					     Dm/B	|
|---------------------------------------------15------------------------------|
|-17b18-------------17----------17b18--------------17---------18------20b22---|
|--------------------------14-------------------------------------17----------|
|--------------------------------------------------------/19------------------|
|-----------------------------------------------------------------------------|
|-----------------------------------------------------------------------------|
|
|----------------------------------------------------------------------------|
|-20p18-20b22-------20p18----18-20-20b22-20p18----18-20-20b22-20p18----18-20-|
|-------------------------19-------------------19-------------------19-------|
|----------------------------------------------------------------------------|
|----------------------------------------------------------------------------|
|----------------------------------------------------------------------------|
|
|
|---------------------------------|
|-20b22-20p18----18-20b22---------|
|-------------19------------------|
|---------------------------------|
|---------------------------------|
|---------------------------------|

Interlude
Gtrs 1&2
|----------------------------------------------------------------------|
|----------------------------------------------------------------------|
|-----------------3---------2------------------------3-----------------|
|-2--------5--2---3---------2-------2---------5--2---1-----------------|
|-2---2-4--5--2---1-----2-4---------2----2-4--5--2---1-----2-4-3-----2-|
|-0--------3---------0--------3-2---0--0------3---------0--------2-1---|
      . .		      . .		     . .
 repeat interlude once then...

|--------------|---------------|----------------------------|
|--------------|---------------|----------------------------|
|--------------|---------------|----------------------------|
|-2-2----------|-2-2-----------|-2-2--22--2---22--2---------|
|-2-2----------|-2-2-----------|-2-2--22--2---22--2---5---0-|
|-0-0----------|-0-0------/7-6-|-0-0--00--0---00--0---3-----|
|                                	  ..      ..     	     |
|----------------------------|------------------------------|
|----------------------------|--------------------------3---|
|----------------------------|--------------------------2---|
|-2-2---22--2---22--2---4--3-|-2-2---22--2---22--2------0---|
|-2-2---22--2---22--2---2--3-|-2-2---22--2---22--2---5------|
|-0-0---00--0---00--0------1-|-0-0---00--0---00--0---3------|
|       ..      ..                   ..      ..             |
|------------------------|
|------------------------|
|------------------------|
|-2-2---22--2--2---------|
|-2-2---22--2--2---------|
|-0-0---00--0--0---/7--6-|
        ..     .

Riff 1 (under synth)
Gtrs 1 & 2
|------------------------------|----------------------------|
|------------------------------|----------------------------|
|------------------------------|----------------------------|
|-2-2---22--2---2--------------|-2-2---22--2---2------------|
|-2-2---22--2---2--------------|-2-2---22--2---2--5---4---3-|
|-0-0---00--0---0---/7---6---5-|-0-0---00--0---0------------|

repeat 4x

Riff 2
Gtr 1
|--------------------------|------------------|---------------------|--------|
|--------------------------|------------------|---------------------|--------|
|--------------------------|------------------|---------------------|--------|
|--------------------------|-------------0----|---------------------|--------|
|------------------------7-|-------------0----|---------------------|--------|
|-0------------------------|-----7------------|-0-------------------|--------|

Gtr 2
With ring modulator effect
|-------14-----------------|------------------|---14--------------0-|--<0,6>-|
|----------15-12-----------|------------------|------15-12----------|--------|
|----------------13--------|------------------|------------13-------|--------|
|-------------------14-----|------------------|---------------14----|--------|
|-----------------------13-|-<13,14>----------|---------------------|--------|
|--------------------------|------------------|---------------------|--------|

Riff 3
Gtr 1
|-------------------------------------|
|-------------------------------------|
|-------------------------------------|
|-------------------------------------|
|-----/7--5-----------5---------------|
|--0---------7-6-5-0----7-6-5-3-5-3b4-|

Gtr 2
|-------------------------------------|
|-------------------------------------|
|-----/9--7-----------7---------------|
|------------9-8-7------9-8-7-5-7-5b6-|
|--7---------------7------------------|
|-------------------------------------|

Repeat the CHORDS in the chorus then play the interlude 4x and end with...

|-------|
|-------|
|-------|
|-2---2-|
|-2---2-|
|-0---0-|

E-mail me for mistakes, but Im pretty sure this is 100% correct
ya bastards

  Visit MetalTabs.com for more metal tablature

bottom separator

Contact Us | Privacy Policy | Disclaimer
Copyright © 2001-2014 MetalTabs.com. All Rights Reserved.