top separator

Home

Forum

What's New

Submit a Tab

FAQ

Links

Contact Us

Link to Us

MuSpy.com

MetalTabs.com logo

Bands

0-9

A

B

C

D

E

F

G

H

I

J

K

L

M

N

O

P

Q

R

S

T

U

V

W

X

Y

Z

Search

What

Where
 

Die Apokalyptischen Reiter - "Seid Willkommen" Guitar Tab

Plain Text Version
More Die Apokalyptischen Reiter Tabs

Hits: 4744
Rated: 3.83 out of 5 (6 votes)
Updated: 2004-01-03 06:00:33

 

Important note
This tab is available online because we obtained explicit permission from Die Apokalyptischen Reiter or their label.


#----------------------------------PLEASE NOTE---------------------------------#
#This file is the author's own work and represents their interpretation of the #
#song. You may only use this file for private study, scholarship, or research. #
#Unless specified otherwise, this is NOT an official tab from the band members.#
#------------------------------------------------------------------------------#

  Visit MetalTabs.com for more metal tablature
  
Band:  Die Apokalyptischen Reite
Album: Have A Nice Trip
Song:  Seid Willkommen
Version 1.1 - December 10, 2003
Transcribed By: Thorben Schneider
HTTP:          www.thorbenschneider.de | www.icedearth.de


.  - palm mute           /  - slide up to



Tune the guitar on C <- that's like Fuchs has his guitar tuned

Melody:
+------------------------------------------------------------------+
|------------------------------------------------------------------|
|------9-10-9------------------------------------------------------|
|7-10----------12-10-12-10\-7--10-------------10-9-7----7----------|
|--------------------------------------7--7----------------10------|
+------------------------------------------------------------------+


"Ihr Helden schwelget in Wonnen..."
+-----------------------------------------------------------------+
|-----------------------------------------------------------------|
|-----------------------------------------------------------------|
|-----------------------------------------------------------------|
|-7-7-7-7-7-7-7-7-7-7-7-7-7-7-7-7-2-2-2-2-2-2-2-2-7-7-7-7-7-7-7-7-|
+-5-5-5-5-5-5-5-5-5-5-5-5-5-5-5-5-0-0-0-0-0-0-0-0-5-5-5-5-5-5-5-5-+
  . . . . . . . . . . . . . . . . . . . . . . . . . . . . . . . .

"ooohoooohohohohohohooohooo..."
+------------------------------------------------------------+
|------------------------------------------------------------|
|------------------------------------------------------------|
|------------------------------------------------------------|
|-7-------7-------7-------7-------2-------2/------7------7---|
+-5-------5-------5-------5-------0-------0/------5------5---+

  Visit MetalTabs.com for more metal tablature

bottom separator

Contact Us | Privacy Policy | Disclaimer | Legal Notice
Copyright © 2001-2014 MetalTabs.com. All Rights Reserved.