top separator

Home

Forum

What's New

Submit a Tab

FAQ

Links

Contact Us

Link to Us

MetalTabs.com logo

Bands

0-9

A

B

C

D

E

F

G

H

I

J

K

L

M

N

O

P

Q

R

S

T

U

V

W

X

Y

Z

Search

What

Where
 

My Dying Bride - "The Snow in My Hand" Guitar Tab

Plain Text Version
More My Dying Bride Tabs

Hits: 6430
Rated: 4.00 out of 5 (7 votes)
Updated: 2001-06-04 08:02:00

 

Important note
This tab is available online because we obtained explicit permission from My Dying Bride or their label.


#----------------------------------PLEASE NOTE---------------------------------#
#This file is the author's own work and represents their interpretation of the #
#song. You may only use this file for private study, scholarship, or research. #
#Unless specified otherwise, this is NOT an official tab from the band members.#
#------------------------------------------------------------------------------#

  Visit MetalTabs.com for more metal tablature
  
Taken with permission from www.MyDyingBride.org

Intro (x4)

A--7----7--------------------------------------
E---------0--7--10--8--8----7-8-10----8--10----


Rhy 1 (x 4)  (2nd time: start to sing "I've seen them")
                                                      (*)
A--10------5--11--10------13--12----12--10--10------8--5--
E---8------3---9---8------11--10----10---8---8------6--3--

(*) 4th time: don't play


Break (x2)

D----------------------11--13--14--
A--13----11--13--14-----9--11--12--
E--11-----9--11--12----------------


Rhy 2 (x2) ("Get away from me" and "I-I need help")

  (^^^^^^^^^^^^^^^^^^^^^^^^^^^^^^^^^^^^^^^^^^^^^^)
A--7------10---8--10-----11--13--8---11----13--15--3--16---15--
E--5-------9---6--8-------9--11--6----9----11--13--1--14---13--

  (^^^^^^^^^^^^^^^^^^^^^^^^^^^^)
A--7------10---8--10-----11--13--
E--5-------9---6---8------9--11--

A------3--16----15--13--11--
E------1--14----13--11---9--

A--3-3-3--16----15--13--14--
E--1-1-1--14----13--11--13--

A--3-3-3--16----13--15--11--
E--1-1-1--14----11--13---9--

A--3-3-3--16----15--13--11--
E--1-1-1--14----13--11---9--

(^) repeated very fast


Rhy 3 (x2)

A---7-----7-----7--10--10--
E---5-----5-----5---8---8--

A--10--12--13--12--13-------12---13/12---8--7------5--7--8-8-
E---8--10--11--10--11-------10---11/10---6--5------3--5--6-6-


Rhy 4 (x4) (2nd time start to sing: "Lose myself")

  (^)                      (^)
A--7------8--7--8-10--8-11-10-----
E--5------6--5--6--8--6--9--8-----

            (^)                (^)
A-10-11---8--7--------7-11---8-10--
E--8--9---6--5--------5--9---6--8--

A-10-11-10-8-10--8-
E--8--9--8-6--8--6-


Rhy 5 (x6)
                                                             (#)
A--12----12----12----12--16---13--15----15----15----15--12---10-
E--10----10----10----10--14---11--13----13----13----13--14---11-

(#) 2nd and 6th time: don't play


Repeat Rhy 1 (x5)  (2nd time start to sing "I had watched the snow")

tabbed by Alex Meroni (ameroni@komodo.ing.unico.it)

  Visit MetalTabs.com for more metal tablature

bottom separator

Contact Us | Privacy Policy | Disclaimer | Legal Notice
Copyright © 2001-2014 MetalTabs.com. All Rights Reserved.