top separator

Home

Forum

What's New

Submit a Tab

FAQ

Links

Contact Us

Link to Us

MuSpy.com

MetalTabs.com logo

Bands

0-9

A

B

C

D

E

F

G

H

I

J

K

L

M

N

O

P

Q

R

S

T

U

V

W

X

Y

Z

Search

What

Where
 

My Dying Bride - "Your River" Guitar Tab

Plain Text Version
More My Dying Bride Tabs

Hits: 9761
Rated: 4.79 out of 5 (14 votes)
Updated: 2001-06-04 08:01:34

 

Important note
This tab is available online because we obtained explicit permission from My Dying Bride or their label.


#----------------------------------PLEASE NOTE---------------------------------#
#This file is the author's own work and represents their interpretation of the #
#song. You may only use this file for private study, scholarship, or research. #
#Unless specified otherwise, this is NOT an official tab from the band members.#
#------------------------------------------------------------------------------#

  Visit MetalTabs.com for more metal tablature
  
Taken with permission from www.MyDyingBride.org

INTRO
C#--||---0h2--2--------3p2--0h2--2--------0h2--2--------3p2--0h2--2-----
G#--||---0----0--------0----0----0--------0----0--------0----0----0-----
E---||*-----------------------------------------------------------------
B---||*-----------------------------------------------------------------
F#--||------------------------------------------------------------------
C#--||------------------------------------------------------------------
         CLEAN TONE WITH DELAY


C#--------7h9--9-----10p9--7h9--9--------7h9--9--------10p9--7\5--5-----
G#--------7----7-----7-----7----7--------7----7--------7-----7-5--5-----
E-----------------------------------------------------------------------
B-----------------------------------------------------------------------
F#----------------------------------------------------------------------
C#----------------------------------------------------------------------


     2x
C#---||-----0h2--2-----------3p2-----0h2--2--|--------------------------
G#---||-----0----0-----------0-------0----0--|--------------------------
E---*||--------------------------------------|--------------------------
B---*||--------------------------------------|--------------------------
F#---||--------------------------------------|--------------------------
C#---||--------------------------------------|--------------------------





    DISTORTED RIFF BY BOTH GUITARS
C#--||------------------------------------------------------------------
G#--||------------------------------------------------------------------
E---||*-----------------------------------------------------------------
B---||*--4--------5-----------------4--------5--7--------4--5-----------
F#--||---4--------5--2--2--2--------4--------5--7--------4--5--2--2-2---
C#--||---2--------3--0--0--0--------2--------3--5--------2--3--0--0-0---


    GUITAR 1
C#--|-----------|--------------------------------------------------------
G#--|-----------|--------------------------------------------------------
E---|-----2--3--|--------------------------------------------------------
B---|--4--------|--------------------------------------------------------
F#--|--4--------|---2---2-------------------------------2---2-----------
C#--|--2--------|---------3--2--3--2--2-----2--3--5-----------3--2--3--2-




C#----------------------------------------------------------------------
G#----------------------------------------------------------------------
E-----------------------------------------------------------------------
B-----------------------------------------------------------------------
F#-------------2--0-----------------------------------------------------
C#---2-----2-----------3--5---------------------------------------------


    GUITAR 2      * VIOLIN
C#--|-----------|------------------------------------------------------||
G#--|-----------|------------------------------------------------------||
E---|-----------|-----------------------------------------------------*||
B---|--4--2--3--|------------play same part than guit.1---------------*||
F#--|--4--------|------------------------------------------------------||
C#--|--2--------|------------------------------------------------------||


    ===============

     VERSE 1 GUITAR 1
5x
C#--|--------|----------------------------------------------------------||
G#--|--------|----------------------------------------------------------||
E---|--------|*--------------------------------------------------------*||
B---|--5-----|*---6--5--------6--5--------6--5--------6--5-------------*||
F#--|--5-----|----------5--4--------4--3--------3--2--------------------||
C#--|--3-----|----------------------------------------------6--5--3-----||


     GUITAR 2
C#--|-------|-|---------------------------------------------------------||
G#--|-------|-|---------------------------------------------------------||
E---|-------|-|*-Guitar 2 stars in the second time from the last three-*||
B---|--5----|-|*-------------------------------------------------------*||
F#--|--5----|-|--notes and then play the same than Guitar 1---4 times---||
C#--|--3----|-|---------------------------------------------------------||

    ===============

    VERSE 2  GUITAR 1
C#--||------------------------|-----------------------|------------------
G#--||------------------------|-----------------------|------------------
E---||*-----------------------|-----------------------|------------------
B---||*-----------------------|-----------------------|------------------
F#--||---6-----------6-----6--|--5-----------5-----5--|--8-----------8---
C#--||---6--6--6--6--6--6--6--|--3--3--3--3--3--3--3--|--6--6--6--6--6---


                                       4x
C#--------|----------------------------||
G#--------|----------------------------||
E---------|---------------------------*||
B---------|---------------------------*||
F#--------|--9-----------9-----9-------||
C#--6--6--|--7--7--7--7--7--7--7-------||

    GUITAR 2       A.H                        A.H               A.H
C#--|------------------------|----------------------|-------------------|
G#--|--------------8---------|----------------------|-------------------|
E---|------------------------|---------------8------|------------9------|
B---|------------------------|----------------------|-------------------|
F#--|--6---------------------|--5-------------------|--8----------------|
C#--|--6---------------------|--3-------------------|--6----------------|



                   A.H        4x
C#---------------------------||
G#---------------------------||
E---------------------9-----*||
B---------------------------*||
F#--9------------------------||
C#--7------------------------||


    ===============

    GUITAR 1                   4x                     4x
C#--||--------------------------||---------------------|----------------|Bass part
G#--||--------------------------||---------------------|----------------|duiring
E---||*------------------------*||*-------------------*|----------------|4 times
B---||*-----8--9---------0-----*||*----8--9---------0-*|----------------|
F#--||---7--------9--10---------||--7--------9--10-----|--7/--::::::::--|
C#--||--------------------------||---------------------|----------------|

     P.M-----------------------------------------------|


    GUITAR 2
C#--|--------------------------|-----------------------|----------------|
G#--|--------------------------|-----------------------|----------------|
E---|--------------------------|-----------------------|----------------|
B---|---9--::::::::::::::::::::|---2-------------------|--2-------------|
F#--|---9--::::::::::::::::::::|---2-------------------|--2--:::::::::--|
C#--|---7--::::::::::::::::::::|---0-------------------|--0-------------|
        *Only the first time



     THEN BOTH GUITARS       8x
C#--||-----------------------||
G#--||-----------------------||
E---||*---------------------*||
B---||*-----8--9---------0--*||
F#--||---7--------9--10------||
C#--||-----------------------||

     P.M----------------------|



     ===============


    GUITAR 1                                                                    5x
C#--||--------------------|------------------|---------------|-------------------||
G#--||--------------------|------------------|---------------|-------------------||
E---||*-------------------|------------------|---------------|-------------------||
B---||*--9----------------|---7--------------|---5-----------|----------------\9-||
F#--||---7----------------|---7--------------|---5-----------|-4-5-4-2--\7-\7----||
C#--||---0----------------|---5--------------|---3-----------|-2-3-2-0-----------||


      *play this in times #1-#3-#5

C#--|----------------------||--------------------------|---------------------
G#--|--------------------- ||--------------------------|---------------------
E---|----------------------||--------------------------|---------------------
B---|---9----9--10--12---7\||-7--7-5/7-9---9-9\7-7\5-5-|--5h7p5---4h5--7-----
F#--|---7------------------||-7------------------------|---------------------
C#--|---0------------------||-5------------------------|---------------------


                                5x
C#---------------|--------------||   The lyrics stars in the
G#---------------|--------------||   second time
E----------------|-------------*||
B--4--4h5--4--2--|--9--10--12--*||
F#---------------|--------------||
C#---------------|--------------||





C#--||------------------------||* Replacemente of previous part
G#--||------------------------|| played in times #2-#4 only
E---||------------------------||
B---||--7--7--9--5--5h7--7p5--||
F#--||--7---------------------||
C#--||--5---------------------||



    BOTH GUITARS
C#-----------------------||
G#-----------------------||
E------------------------||
B---4--------5-----------||
F#--4--------5--2--2--2--||
C#--2--------3--0--0--0--||


   ===============


    GUITAR 1-VERSE 3
C#--||------------------------------------------------------------------
G#--||---------------6--5-----------------6--5-----------------6--------
E---||*--7--5--7--------------7--5--7--------------7--5--7--------------
B---||*-----------------------------------------------------------8---7-
F#--||------------------------------------------------------------------
C#--||------------------------------------------------------------------


                       2x
C#----------------------||
G#-----------------5----||
E--------------5--------||
B----------7------------||
F#----------------------||
C#----------------------||


    GUITAR 2
C#--|--------------------------------------------------------------------
G#--|--------------------------------------------------------------------
E---|--------------------------------------------------------------------
B---|------7-----5--7--8-----8--7--------------10-----10--8--7-----------
F#--|-5--5--------------------------8-----8--7----------------------10---
C#--|--------------------------------------------------------------------


                             2x
C#---------------------------||
G#-----------------------5---||
E---------------------------*||
B------------7--5--7--8-----*||
F#--8--5---------------------||
C#---------------------------||


    ===============

    GUITAR 1
C#--||--------------------------------------------------------||
G#--||--------------------------------------------------------||
E---||*-------------------------------------------------------||
B---||*--5-----------7-------------2-----0--2--3-----3--3--2--||
F#--||---5-----------7----------------------------------------||
C#--||---3-----3--3--5-----5/3--------------------------------||




    GUITAR 2                                              7x
C#--|------------------------------------------------------||
G#--|------------------------------------------------------||
E---|-----------------------------------------------------*||
B---|-5-------------7-------------2-----------3-----------*||
F#--|-5-------------7-------------2-----------3------------||
C#--|-3-------3--3--5-----5/3-----0-----0--0--1--1--1--0---||



  ==========================
  VERSE 3 - VERSE 2 (5 TIMES)
  ==========================

  THEN

  GUITAR 1
C#-|-------------|-----------------|--------------|-------------|
G#-|-------------|-----------------|--------------|-------------|
E--|-------------|-----------------|--------------|-------------|
B--|-------------|-----------------|--------------|-------------|
F#-|---6---------|--5--------------|--8-----------|--9----------|
C#-|---6---------|--3--------------|--6-----------|--7----------|



  GUITAR 2 A.H               A.H               A.H
C#-------------|----------------|-----------------|------------|
G#-------8-----|----------------|-----------------|------------|
E--------------|-------------8--|--------------8--|---------9--|
B--------------|----------------|-----------------|------------|
F#--6----------|-----5----------|--8--------------|--9---------|
C#--6----------|-----3----------|--6--------------|--7---------|


     OUTRO BOTH GUITARS
C#--|--------------------||
G#--|--------------------||
E---|--------------------||
B---|--4-----5-----------||
F#--|--4-----5--2--2--2--||
C#--|--2-----3--0--0--0--||




     ===============

    * Violin arragement for guitar
C#--7--------7--10--9--10--12--9--------9--10--9-----9h10p9\7-----------
G#----------------------------------------------------------------------
E-----------------------------------------------------------------------
B-----------------------------------------------------------------------
F#----------------------------------------------------------------------
C#----------------------------------------------------------------------



C#--7--10--9--10--12--9-----------||
G#--------------------------7--8--||
E---------------------------------||
B---------------------------------||
F#--------------------------------||
C#--------------------------------||


 * this arragement is played in the first distorted part


                           *TAB EXPLANATION*

                         SEPARATOR  =============
                         REST       :::::::::::::

Transcribed by Gerardo Ducros
Tabbed by G.Ducroz and L.Antozzi

  Visit MetalTabs.com for more metal tablature

bottom separator

Contact Us | Privacy Policy | Disclaimer | Legal Notice
Copyright © 2001-2014 MetalTabs.com. All Rights Reserved.