top separator

Home

Forum

What's New

Submit a Tab

FAQ

Links

Contact Us

Link to Us

MuSpy.com

MetalTabs.com logo

Bands

0-9

A

B

C

D

E

F

G

H

I

J

K

L

M

N

O

P

Q

R

S

T

U

V

W

X

Y

Z

Search

What

Where
 

Darkthrone - "The Pagan Winter" Guitar Tab

Plain Text Version
More Darkthrone Tabs

Hits: 9160
Rated: 4.54 out of 5 (13 votes)
Updated: 2004-01-02 09:38:09

 

By:

sendpm.gif

email.gif

Important note
This tab is available online because we obtained explicit permission from Darkthrone or their label.


#----------------------------------PLEASE NOTE---------------------------------#
#This file is the author's own work and represents their interpretation of the #
#song. You may only use this file for private study, scholarship, or research. #
#Unless specified otherwise, this is NOT an official tab from the band members.#
#------------------------------------------------------------------------------#

  Visit MetalTabs.com for more metal tablature
  
Artist : Darkthrone
Song   : The Pagan Winter
Album  : A Blaze In The Nothern Sky
Transcribed by Midnat                  Mute = .  Slide = /
                                       Bend = /  Harmonic = *
                                       Pulling = ^

E- mail: Morsusfrc@hotmail.com

For the right tempo and shifts you’ll nedd to listen to the song..


  Fill.1                  x6
E|--------------------------|
B|--------------------------|
G|-------------------3-4-5--|
D|--7----6------3--2--------|
A|--7----6----2-1-----------|
E|--5----4----0-------------|


Riff.1 enters after playing Fill.1 x4..


  Riff.1  -Trem..-

E|--888888-7----------------55-----------6-7-8--|
B|-----------8-777-8-777777----6666-5555--------|
G|----------------------------------------------| x2
D|----------------------------------------------|
A|----------------------------------------------|
E|----------------------------------------------|


  Fill.2
E|------------------------------|------------------------------|
B|------------------------------|------------------------------|
G|--666666-666666-777777-888888-|-666666-666666-555555-666666--|
D|--666666-666666-777777-888888-|-666666-666666-555555-666666--|
A|--444444-444444-555555-666666-|-444444-444444-333333-444444--|
E|------------------------------|------------------------------|


  Fill.2 (continued..)                                       x3
E|------------------------------|------------------------------|
B|------------------------------|------------------------------|
G|--666666-666666-777777-888888-|-555555-555555-444444-555555--|
D|--666666-666666-777777-888888-|-555555-555555-444444-555555--|
A|--444444-444444-555555-666666-|-333333-333333-222222-333333--|
E|------------------------------|------------------------------|


  Fill.3                                              x4
E|-----------------------|------------------------------|
B|-----------------------|------------------------------|
G|--9-9--10-10\-7-10-9-9-|-9-9-14-14-13-13-10-10-13\10--|
D|--9-9--10-10\-7-10-9-9-|-9-9--x--x--x--x--x--x--x-----|
A|--7-7---8--8--5--8-7-7-|-7-7-12-12-11-11--8--8-11\-8--|
E|-----------------------|------------------------------|







  Fill.4        x6       Riff.2 (after playing Fill.4 4times..)
                                                                         X2
E|----------------|    E|--7-6------------------------2-3------------------|
B|----------------|    B|------8--8/11--10-9-8—7\-3-------4-3-----------2--|
G|-------------6--|    G|---------------------------4----------3--2--------|
D|--5---4---5--x--|    D|-------------------------------------------3------|
A|--5---4---5--4--|    A|---------------------------------------------4----|
E|--3---2---3-----|    E|--------------------------------------------------|



  Fill.5 I                x2     Fill.5 II  -Trem..-  | x2
E|--------------------------|  E|-------------------------|
B|---------------2-1-----1--|  B|--------------2-1-----1--|
G|--2-----1-1-1------2-3----|  G|--2-----1-1-1-----2-3----|
D|----3---------------------|  D|----3--------------------|
A|------3-------------------|  A|------3------------------|
E|--------------------------|  E|-------------------------|


Repeat Fill.1 3times (with Riff.1 the 2nd time..)

Repeat Fill.5

Repeat Fill.2 2times..


  Fill.6 I               x4     Fill.6 II                   x2
E|-------------------------|  E|------------------------------|
B|-------------------------|  B|------------------------------|
G|-------------------------|  G|------------------------------|
D|-------------000--3-2-2--|  D|------------------------------|
A|--2222-2222--xxx--1-0-0--|  A|--2-222—8\7-55--2-222-8\7-33--|
E|--0000-0000--333---------|  E|--0-000—6\5-33--0-000-6\5-11--|


Repeat Fill.6 I 2times..

Repeat Fill.6 II 2times..

Repeat Fill.6 I 2times..


E|-------|
B|-------|
G|-------|
D|-------|
A|--2-2--|
E|--0-0--|


The End..

  Visit MetalTabs.com for more metal tablature

bottom separator

Contact Us | Privacy Policy | Disclaimer | Legal Notice
Copyright © 2001-2014 MetalTabs.com. All Rights Reserved.