top separator

Home

Forum

What's New

Submit a Tab

FAQ

Links

Contact Us

Link to Us

MetalTabs.com logo

Bands

0-9

A

B

C

D

E

F

G

H

I

J

K

L

M

N

O

P

Q

R

S

T

U

V

W

X

Y

Z

Search

What

Where
 

Falkenbach - "...Where Blood Will Soon Be Shed" Guitar Tab

Plain Text Version
More Falkenbach Tabs

Hits: 6596
Rated: 4.33 out of 5 (3 votes)
Updated: 2004-01-02 09:35:16

 

By:

Darkenelf

sendpm.gif

email.gif

Important note
This tab is available online because we obtained explicit permission from Falkenbach or their label.


#----------------------------------PLEASE NOTE---------------------------------#
#This file is the author's own work and represents their interpretation of the #
#song. You may only use this file for private study, scholarship, or research. #
#Unless specified otherwise, this is NOT an official tab from the band members.#
#------------------------------------------------------------------------------#

  Visit MetalTabs.com for more metal tablature
  
Band: Falkenbach
Album: ...magni blandinn ok megintiri...
Song: ...Where Blood will soon be shed
Tabbed by: Martijn Wietsma (Darkenelf)
Tab Date: 05-12-2003
Email: northerland@yahoo.co.uk

Standard E Tuning

. = palm mute
/ = forward slide
\ = backward slide
h = hammer
p = pick
~ = pull string up

riff A
|--------------------------------------------------------------|
|--------------------------------------------------------------|
|-7---7---7---10-9-8---7---7---7---10-9-8----------------------|
|---7---7---7------------7---7---7-----------------------------|
|--------------------------------------------------------------|
|--------------------------------------------------------------|

|--------------------------------------------------------------|
|--------------------------------------------------------------|
|-7---7---7---10-9-8---7---7---7---10-9-8----------------------|
|---7---7---7------------7---7---7-----------11~----13~--------|
|--------------------------------------------------------------|
|--------------------------------------------------------------|

riff B
|--------------------------------------------------------------|
|--------------------------------------------------------------|
|-7---7---7-------------7---7---7----10-9-8--------------------|
|---7---7---7--8-10-11-----7---7---7---------------------------|
|--------------------------------------------------------------|
|--------------------------------------------------------------|

|--------------------------------------------------------------|
|--------------------------------------------------------------|
|-7---7---7-------------7---7---7----10-9-8--------------------|
|---7---7---7--8-10-11-----7---7---7---------11~----13~--------|
|--------------------------------------------------------------|
|--------------------------------------------------------------|

riff A
|--------------------------------------------------------------|
|--------------------------------------------------------------|
|-7---7---7---10-9-8---7---7---7---10-9-8----------------------|
|---7---7---7------------7---7---7-----------------------------|
|--------------------------------------------------------------|
|--------------------------------------------------------------|

|--------------------------------------------------------------|
|--------------------------------------------------------------|
|-7---7---7---10-9-8---7---7---7---10-9-8----------------------|
|---7---7---7------------7---7---7-----------11~----13~--------|
|--------------------------------------------------------------|
|--------------------------------------------------------------|

riff C (1:02)
|--------------------------------------------------------------|
|--------------------------------------------------------------|
|---------------------------------------5-5--------------------|
|-7--777-777-777-7---7--777-777-777-7---3-3--6-----------------|
|-5--555-555-555-5---5--555-555-555-5--------4-----------------|
|--------------------------------------------------------------|
							(4x)
riff D (2:04)
|--------------------------------------------------------------|
|--------------------------------------------------------------|
|--------------5~--5-5--4--4-4---------------------------------|
|-7-------7----3~--3-3--2--2-2--6-6----------------------------|
|-5-------5---------------------4-4----------------------------|
|----0-0-------------------------------------------------------|
     . .						(2x)

riff C (2:18)
|--------------------------------------------------------------|
|--------------------------------------------------------------|
|---------------------------------------5-5--------------------|
|-7--777-777-777-7---7--777-777-777-7---3-3--6-----------------|
|-5--555-555-555-5---5--555-555-555-5--------4-----------------|
|--------------------------------------------------------------|
							(4x)

riff D (3:05)
|----------------------------------------|---------------------|
|----------------------------------------|---------------------|
|--------------5~--5-5--4--4-4-----------|---------------------|
|-7-------7----3~--3-3--2--2-2--6-6------|--7~-----------------|
|-5-------5---------------------4-4------|--5~-----------------|
|----0-0---------------------------------|---------------------|
     . .			(2x)

riff E (3:25)
|--------------------------------------------------------------|
|--------------------------------------------------------------|
|--------------------------------------------------------------|
|-7777-7777-7777-77/8---7777-7777-7777-77-77-------------------|
|-5555-5555-5555-55/6---5555-5555-5555-55-55-------------------|
|--------------------------------------------------------------|

|--------------------------------------------------------------|
|--------------------------------------------------------------|
|--------------------------------------------------------------|
|-4444-4444-4444-44/5---4444-4444-4444-44-44-------------------|
|-2222-2222-2222-22/3---2222-2222-2222-22-22-------------------|
|--------------------------------------------------------------|
							(4x)

riff D
|--------------------------------------------------------------|
|--------------------------------------------------------------|
|--------------5~--5-5--4--4-4---------------------------------|
|-7-------7----3~--3-3--2--2-2--6-6----------------------------|
|-5-------5---------------------4-4----------------------------|
|----0-0-------------------------------------------------------|
     . .						(2x)

riff C
|--------------------------------------------------------------|
|--------------------------------------------------------------|
|---------------------------------------5-5--------------------|
|-7--777-777-777-7---7--777-777-777-7---3-3--6-----------------|
|-5--555-555-555-5---5--555-555-555-5--------4-----------------|
|--------------------------------------------------------------|
							(4x)

riff D
|--------------------------------------------------------------|
|--------------------------------------------------------------|
|--------------5~--5-5--4--4-4---------------------------------|
|-7-------7----3~--3-3--2--2-2--6-6----------------------------|
|-5-------5---------------------4-4----------------------------|
|----0-0-------------------------------------------------------|
     . .						(2x)

riff A
|--------------------------------------------------------------|
|--------------------------------------------------------------|
|-7---7---7---10-9-8---7---7---7---10-9-8----------------------|
|---7---7---7------------7---7---7-----------------------------|
|--------------------------------------------------------------|
|--------------------------------------------------------------|

|--------------------------------------------------------------|
|--------------------------------------------------------------|
|-7---7---7---10-9-8---7---7---7---10-9-8----------------------|
|---7---7---7------------7---7---7-----------11~----13~--------|
|--------------------------------------------------------------|
|--------------------------------------------------------------|

riff B
|--------------------------------------------------------------|
|--------------------------------------------------------------|
|-7---7---7-------------7---7---7----10-9-8--------------------|
|---7---7---7--8-10-11-----7---7---7---------------------------|
|--------------------------------------------------------------|
|--------------------------------------------------------------|

|--------------------------------------------------------------|
|--------------------------------------------------------------|
|-7---7---7--------------7---7---7---10-9-8--------------------|
|---7---7---7--8-10-11-----7---7---7---------11~----13~--------|
|--------------------------------------------------------------|
|--------------------------------------------------------------|

riff A (ending riff)
|--------------------------------------------------------------|
|--------------------------------------------------------------|
|-7---7---7---10-9-8---7---7---7---10-9-8----------------------|
|---7---7---7------------7---7---7-----------------------------|
|--------------------------------------------------------------|
|--------------------------------------------------------------|

|--------------------------------------------------------------|
|--------------------------------------------------------------|
|-7---7---7---10-9-8---7---7---7---10-9-8----------------------|
|---7---7---7------------7---7---7-----------11~----13~--------|
|--------------------------------------------------------------|
|--------------------------------------------------------------|

  Visit MetalTabs.com for more metal tablature

bottom separator

Contact Us | Privacy Policy | Disclaimer | Legal Notice
Copyright © 2001-2014 MetalTabs.com. All Rights Reserved.