top separator

Home

Forum

What's New

Submit a Tab

FAQ

Links

Contact Us

Link to Us

MuSpy.com

MetalTabs.com logo

Bands

0-9

A

B

C

D

E

F

G

H

I

J

K

L

M

N

O

P

Q

R

S

T

U

V

W

X

Y

Z

Search

What

Where
 

My Dying Bride - "Two Winters Only" Bass Tab

Plain Text Version
More My Dying Bride Tabs

Hits: 5662
Rated: 5.00 out of 5 (4 votes)
Updated: 2001-06-04 08:00:13

 

Important note
This tab is available online because we obtained explicit permission from My Dying Bride or their label.


#----------------------------------PLEASE NOTE---------------------------------#
#This file is the author's own work and represents their interpretation of the #
#song. You may only use this file for private study, scholarship, or research. #
#Unless specified otherwise, this is NOT an official tab from the band members.#
#------------------------------------------------------------------------------#

  Visit MetalTabs.com for more metal tablature
  
Taken with permission from www.MyDyingBride.org

Tablature Explanation
>   accent
.   staccato
/   slide up
\   slide down
()  hold note
b() bend to equivalent fret shown in brackets
r() release
R   rest
/3\ triplet timing


---|
--o| repeat the riff as
--o| many times as is needed.
---|

1.__ optional endings
2.__

************************************************************************
"Two Winters Only" - tuned down 1 1/2 steps.

0:28
E |----------------------------------------|
B |o-----------------5h7---------5---------|
G#|o-5-(5)---3-5-(5)-----5-5-(5)---5-5-(5)-|
C#|--------5-------------------------------|
    "What is it . . ."

E |------------------------------|---------|
B |--------3--------------------o|---------|
G#|-1-(1)----1-1-(1)-1/3---(3)--o|-5---(5)-|
C#|------------------------------|---------|

3:53
E |----------------------|----------------------|
B |o---------------------|---------------------o|
G#|o-0--0-8--8\3--3-2--3-|-0--0-7--7\3---3-2-0-o|
C#|----------------------|----------------------|
    "Call me what you will. . ."

4:56
E |----------------------------------------|
B |o-----------------5h7---------5---------|
G#|o-5-(5)---3-5-(5)-----5-5-(5)---5-5-(5)-|
C#|--------5-------------------------------|
    "For just. . ."

E |------------------------------|---------|
B |--------3--------------------o|---------|
G#|-1-(1)----1-1-(1)-1/3---(3)--o|-5---(5)-|
C#|------------------------------|---------|

6:55                       x4
E |--------------------------|------------------------|
B |o------------------------o|------------------------|
G#|o------------------------o|--------------------->>-|
C#|--1-1-1-6-8-6^66-8-6-8-6--|-1-----(1)-1-----(1)-33-|
						    .
7:35
E |----------------------|----------------------|
B |o---------------------|---------------------o|
G#|o-0--0-8--8\3--3-2--3-|-0--0-7--7\3---3-2-0-o|
C#|----------------------|----------------------|
    "We could have changed the world. . ."

Supplied by Chris Weigt (anti_chris@zerospam.com)

  Visit MetalTabs.com for more metal tablature

bottom separator

Contact Us | Privacy Policy | Disclaimer | Legal Notice
Copyright © 2001-2014 MetalTabs.com. All Rights Reserved.