top separator

Home

Forum

What's New

Submit a Tab

FAQ

Links

Contact Us

Link to Us

MuSpy.com

MetalTabs.com logo

Bands

0-9

A

B

C

D

E

F

G

H

I

J

K

L

M

N

O

P

Q

R

S

T

U

V

W

X

Y

Z

Search

What

Where
 

Asphyx - "Food For The Ignorent" Guitar Tab

Plain Text Version
More Asphyx Tabs

Hits: 3444
Updated: 2003-12-28 09:47:03

 

By:

BestialWarrior

sendpm.gif

email.gif

Important note
This tab is available online because we obtained explicit permission from Asphyx or their label.


#----------------------------------PLEASE NOTE---------------------------------#
#This file is the author's own work and represents their interpretation of the #
#song. You may only use this file for private study, scholarship, or research. #
#Unless specified otherwise, this is NOT an official tab from the band members.#
#------------------------------------------------------------------------------#

  Visit MetalTabs.com for more metal tablature
  
Band:  (ASPHYX)
Album: (LAST ONE ON EARTH
Song:  (FOOD FOR THE IGNORANT)

Copyright (c)  (CENTURY MEDIA) (1992)
Version 1.0 - (11-28-03)

Transcribed By: (BestialWarrior)
Email:           Bestialson2003@yahoo.com


.  - palm mute           /  - slide up to
\  - slide down to       ~  - vibrato
h  - hammer on           b  - Bend
p  - pull off            Suffixes for bend
t  - tap                 f  - full bend    h - half bend
ph - pinched harmonic    q  - quarter bend t - tap bend
*  - see comment         ^  - Hold bend    r release bend
x  - Stuccatto           ~  - vibrato bend
,  - slight palm mute    () - ghost note, sustained note
"  - tremolo note        <> - Trill

Tunning: D.
Riff #1.
|---------------------------|
|---------------------------|
|---------------------------|
|---------------------------|
|3--2--3--2--3--2-----------|
|1--0--1--0--1--0--000--000-|
                   ...  ...
                    G    G
Riff#2.Fast/choppy like. All Palm Muted.
|---------------------------------|
|---------------------------------|
|---------------------------------|
|---------------------------------|
|---------------------------------|
|00001111444411110000111122223333-|

Repeat Riff#1.

Riff#3.Up and down pick strokes.Choppy/fast.
|-----------------------------------|
|-----------------------------------|
|-----------------------------------|
|-----------------------------------|
|2---------3---------6--------------|
|0-0-0-0-0-1-0-0-0-0-4-0-0-0-0-3-4-1|
   . . . .   . . . .   . . . .
Riff#4.Fast
|----------------------------|
|----------------------------|
|----------------------------|
|----------------------------|
|-------3-6-32--------3-4-32-|
|000000-1-4-10-000000-1-2-10-|
 ......        ......
Riff#5.Same speed as Riff#4.
|---------------------------|
|---------------------------|
|---------------------------|
|---------------------------|
|-------3--------4--3--4--3-|
|000000-1-000000-2--1--2--1-|
 ......   ......

Repeat Riff #4.

Riff#6.(Heavy picking.)slow.
|----------------------------------------------------------------------|
|----------------------------------------------------------------------|
|----------------------------------------------------------------------|
|----------------------------------------------------------------------|
|2----------------------------------2----------------------------------|
|0-0-0-0-0-0-0-0-0-0-0-0-0-0-3------0-0-0-0-0-0-0-0-0-0-0-0-0-0-2------|
   . . . . . . . . . . . .   tb       . . . . . . . . . . . .   tb
                             (h)                                (h)
Riff#7.Fast
|---------------------------------|
|---------------------------------|
|---------------------------------|
|---------------------------------|
|----------------3333333322222222-|
|3333333355555555-----------------|
 ................................
Riff#8a *( altogether 3times, then 8b)Fast.
|----------------------------------------------|
|----------------------------------------------|
|----------------------------------------------|
|----------------------------------------------|
|2------3-4-32----------2-3-4-32----------1----|
|0-0000-1-2-10-00000000-0-1-2-10-00000000------|
   ....        ........          ........ ~
Riff#8b Fast.
|-----------------------------------------|
|-----------------------------------------|
|-----------------------------------------|
|-----------------------------------------|
|2------3-4-32----------2-3-4-32----------|
|0-0000-1-2-10-00000000-0-1-2-10-00000000-|
   ....        ........          ........
Repeat Riff #7,3,2, then 1.  Special effects..

END

  Visit MetalTabs.com for more metal tablature

bottom separator

Contact Us | Privacy Policy | Disclaimer | Legal Notice
Copyright © 2001-2014 MetalTabs.com. All Rights Reserved.