top separator

Home

Forum

What's New

Submit a Tab

FAQ

Links

Contact Us

Link to Us

MetalTabs.com logo

Bands

0-9

A

B

C

D

E

F

G

H

I

J

K

L

M

N

O

P

Q

R

S

T

U

V

W

X

Y

Z

Search

What

Where
 

Lowbrow - "Victims at play" Guitar Tab

Plain Text Version
More Lowbrow Tabs

Hits: 2801
Rated: 3.00 out of 5 (1 vote)
Updated: 2003-12-28 09:39:04

 

By:

Daniil

sendpm.gif

email.gif

Important note
This tab is available online because we obtained explicit permission from Lowbrow or their label.


#----------------------------------PLEASE NOTE---------------------------------#
#This file is the author's own work and represents their interpretation of the #
#song. You may only use this file for private study, scholarship, or research. #
#Unless specified otherwise, this is NOT an official tab from the band members.#
#------------------------------------------------------------------------------#

  Visit MetalTabs.com for more metal tablature
  
LOWBROW-Victims At Play
Victims At Play-2000
Transcribed by Daniil Laletin
e-mail: dlaletin@mail.ru
version 1.0 October 2003

All corrections are welcome.


Riff 1                                           Fill 1
|--------------------------------------------|  |---------|
|--------------------------------------------|  |---------|
|--------------------------------------------|  |---------|
|---------3--------------------3-------------|  |---------|
|---------1---3-----6----------1---3-----6-5-|  |-2-2-2-2-|
|-0-0-0-0---0-1-0-0-4--0-0-0-0---0-1-0-0-4-3-|  |-0-0-0-0-|

Riff 1 (2 times) with Fill 1
Riff 1 (4 times)


Riff 2
|------------------------------------------------------------------|
|------------------------------------------------------------------|
|------------------------------------------------------------------|
|------------------------------------------------------------------|
|---------33332222--------55555555--------33332222--------55554444-|
|-00000000--------33333333--------00000000--------33332222---------|

|------------------------------------------------------------------|
|------------------------------------------------------------------|
|------------------------------------------------------------------|
|---------------------------------------------------------44443333-|
|---------33332222--------55555555--------33332222--------55554444-|
|-00000000--------33333333--------00000000--------33332222---------|

Riff 2 (1 time)
Repeat Riff 1 (4 times)
Repeat Riff 2 (2 times)


Riff 3a
|-------------------------------------------------|
|-------------------------------------------------|
|-------------------------------------------------|
|-------3-0-2-------10---9-------3-0-2------3-2-0-|gtr 1
|-------3-0-2--------8---7-------3-0-2------3-2-0-|
|-0-000-------0-000----0---0-000-------3333-------|
|
|-------------------------------------------------|
|-------------------------------------------------|
|-------------------------------------------------|
|-------------------------------------------3-2-0-|gtr 2
|-2-----------2------------2----------------3-2-0-|
|-0-----------0------------0-----------3333-------|

Riff 3a (1 time)


Riff 3b
|-------------------------------------------------|
|-------------------------------------------------|
|-------------------------------------------------|
|-------3-0-2-------10---9-------3-0-2------3-2-0-|
|-------3-0-2--------8---7-------3-0-2------3-2-0-|
|-0-000-------0-000----0---0-000-------3333-------|

Riff 3b (4 times)


Riff 4
|---------------------------|
|---------------------------|
|---------------------------|
|-------3-2-0-3---2---------|
|-------3-2-0-3---2---------|
|-0-000---------0---0-3-2-0-|

Riff 4 (4 times)
Repeat Riff 3b (4 times)
Repeat Riff 4 (4 times) then four more times with solo


Riff 5
|------------------------------------------------------------------|
|------------------------------------------------------------------|
|------------------------------------------------------------------|
|------------------------------------------------------------------| gtr 1
|---------33332222--------55555555--------33332222--------55554444-|
|-00000000--------33333333--------00000000--------33332222---------|
|
|------------------------------------------------------------------|
|------------------------------------------------------------------|
|------------------------------------------------------------------|
|------------------------------------------------------------------| gtr2
|-2---------------5---------------2-----------------------55554444-|
|-0---------------3---------------0---------------33332222---------|

Riff 5 (1 time)
Repeat Riff 2 (1 time)

  Visit MetalTabs.com for more metal tablature

bottom separator

Contact Us | Privacy Policy | Disclaimer | Legal Notice
Copyright © 2001-2014 MetalTabs.com. All Rights Reserved.