top separator

Home

Forum

What's New

Submit a Tab

FAQ

Links

Contact Us

Link to Us

MetalTabs.com logo

Bands

0-9

A

B

C

D

E

F

G

H

I

J

K

L

M

N

O

P

Q

R

S

T

U

V

W

X

Y

Z

Search

What

Where
 

Lowbrow - "Restoration" Guitar Tab

Plain Text Version
More Lowbrow Tabs

Hits: 2434
Updated: 2003-12-28 09:38:34

 

By:

Daniil

sendpm.gif

email.gif

Important note
This tab is available online because we obtained explicit permission from Lowbrow or their label.


#----------------------------------PLEASE NOTE---------------------------------#
#This file is the author's own work and represents their interpretation of the #
#song. You may only use this file for private study, scholarship, or research. #
#Unless specified otherwise, this is NOT an official tab from the band members.#
#------------------------------------------------------------------------------#

  Visit MetalTabs.com for more metal tablature
  
LOWBROW-Restoration
Victims At Play-2000
Transcribed by Daniil Laletin
e-mail: dlaletin@mail.ru
version 1.0 October 2003

All corrections are welcome.


Riff 1a
|---------------------------------------------------------------|
|---------------------------------------------------------------|
|---------------------------------------------------------------|
|----------1---------------------------1------------------------|
|------2------2------2---1--2------2------2------2---1--1-1-1-1-|
|-0--0---3------0--0---3------0--0---3------0--0---3----1-1-1-1-|
                                                        . . . .

RIff 1b
|---------------------------------------------------------------|
|---------------------------------------------------------------|
|--------------------------------------3------------------------|
|----------1---------------------------1--4---------------------|
|------2------2------2---1--2------2------2------2---1--1-1-1-1-|
|-0--0---3------0--0---3------0--0---3------0--0---3----1-1-1-1-|
                                                        . . . .

Riff 2
|-------------------------------|
|-------------------------------|
|-------------------------3-----|
|------4---3---4------4---1---4-|
|-2--2-2-5-1---2-2--2-2-5-1---2-|
|-0--0---3-1---2-0--0---3-----2-|


Riff 3
|------------------------------------------------------------------|
|------------------------------------------------------------------|
|------------------------------------------------------------------|
|-------------1111----------------------------1111-----------------|
|-----2222------------2222------------2222------------2222----1111-|
|-0000----3333----0000----333311110000----3333----0000----3333-----|



Riff 4
|------------------------------------------------------------------|
|------------------------------------------------------------------|
|------------------------------------------------------------------|
|-----------------11111111-----------------------------------------|
|---------2222------------2222------------2222----------------2222-|
|-00000000----3333------------333300000000----3333111111113333-----|

|------------------------------------------------------------------|
|------------------------------------------------------------------|
|------------------------------------------------------------------|
|-----------------11111111-----------------------------------------|
|---------2222------------2222------------2222----1111111122222222-|
|-00000000----3333------------333300000000----3333-----------------|



Riff 5                    Riff 6                     Fill 1
|---------------------|  |-----------------------|  |-------|
|---------------------|  |-----------------------|  |-------|
|---------------------|  |-----------------------|  |-------|
|---------------------|  |-----------------------|  |-------|
|-----5-4-54----5-4-6-|  |-----5----54----5----3-|  |-6-3-2-|
|-0000302032000030204-|  |-000030000320000300001-|  |-4-1-0-|



Riff 7
|---------------------------------|
|---------------------------------|
|---------------------------------|
|---------------------------------|
|-2-568-2-58-2-2-2-568-2-58-3/4\3-|
|-0-346-0-36-0-0-0-346-0-36-1/2\1-|
  .     .    . . .     .

  Visit MetalTabs.com for more metal tablature

bottom separator

Contact Us | Privacy Policy | Disclaimer | Legal Notice
Copyright © 2001-2014 MetalTabs.com. All Rights Reserved.