top separator

Home

Forum

What's New

Submit a Tab

FAQ

Links

Contact Us

Link to Us

MetalTabs.com logo

Bands

0-9

A

B

C

D

E

F

G

H

I

J

K

L

M

N

O

P

Q

R

S

T

U

V

W

X

Y

Z

Search

What

Where
 

Lowbrow - "Flesh parade" Guitar Tab

Plain Text Version
More Lowbrow Tabs

Hits: 2736
Rated: 2.00 out of 5 (1 vote)
Updated: 2003-12-28 09:37:02

 

By:

Daniil

sendpm.gif

email.gif

Important note
This tab is available online because we obtained explicit permission from Lowbrow or their label.


#----------------------------------PLEASE NOTE---------------------------------#
#This file is the author's own work and represents their interpretation of the #
#song. You may only use this file for private study, scholarship, or research. #
#Unless specified otherwise, this is NOT an official tab from the band members.#
#------------------------------------------------------------------------------#

  Visit MetalTabs.com for more metal tablature
  
LOWBROW-Flesh Parade
Victims At Play-2000
Transcribed by Daniil Laletin
e-mail: dlaletin@mail.ru
version 1.0 October 2003

All corrections are welcome.

Not sure about :
riff 6


Riff 1a
|-----------------------------------------|
|-----------------------------------------|
|-----------------------------------------|
|----------7----------6----------7--------|
|----------5----------4----------5------6-|
|-0000-5h6---0000-5h6---0000-5h6---0000-4-|

|-----------------------------------------------|
|-----------------------------------------------|
|-----------------------------------------------|
|----------7----------6----------7--------------|
|----------5----------4----------5------6-2---\-|
|-0000-5h6---0000-5h6---0000-5h6---0000-4-0---\-|

Riff 1a (2 times)


Riff 1b
|-----------------------------------------|
|-----------------------------------------|
|-----------------------------------------|
|----------7----------6----------7--------|
|----------5----------4----------5------6-|
|-0000-5h6---0000-5h6---0000-5h6---0000-4-|

                                  |1.     |2.
|----------------------------------------|---------|
|----------------------------------------|---------|
|----------------------------------------|---------|
|----------7----------6----------7-------|---------|
|----------5----------4----------5-8-7-5-|-8-7-5-2-|
|-0000-5h6---0000-5h6---0000-5h6---6-5-3-|-6-5-3-0-|

Riff 1b (1 time)


Riff 2
|--------------------------------------------------------------|
|--------------------------------------------------------------|
|--------------------------------------------------------------|
|------------------------------------------7----------6--------|
|-5--8-7---------------8-7-5--8-7----------5----------4-5--8-7-|
|-3--6-5-000030000000--6-5-3--6-5-0000-5h6---0000-5h6---3--6-5-|

|------------------------------------------|
|------------------------------------------|
|------------------------------------------|
|--------------------------6---5---4---3---|
|-----------------5--8-7-7---6---5---4---2-|
|-000000000000000-3--6-5-----------------0-|

Riff 2 (1 time)
Repeat Riff 1b (1 time)
Repeat Riff 2 (1 time)


Riff 3a
|-------------------------------------------------------------------|
|-------------------------------------------------------------------|
|-------------------------------------------------------------------|
|-4---------4------------------3-3-4---------4--------------4-4-3-3-|
|-2-2-4-5-2-2-4-5-3--3-3-3-3-3-1-1-2-2-4-5-2-2-4-5-3--3-3-3-2-2-1-1-|
|---0-2-3-0---2-3-1--1-1-1-1-1-------0-2-3-0---2-3-1--1-1-1---------|

Riff 3a (2 times)
Then one time more with riff 3b

Riff 3b (second guitar)
|--------------------------|
|--------------------------|
|--------------------------|
|-4----3-------4----3------|
|-2----1----0--2----1--2-1-|
|--------------------------|


Riff 4 (3 times)                           (ending on fourth time)
|-----------------------------------------|---|
|-----------------------------------------|---|
|-----------------------------------------|---|
|-----------------------------------3-----|---|
|---0h2p1---5---4---3---0h2p1---5---1---4-|-2-|
|-0-------0-3=0-2-0-1-0-------0-3-0---0-2-|-0-|

Riff 4 (4 times)


Riff 5
|-----------------------|
|-----------------------|
|-----------------------|
|-----------------------|
|-2----6----3----8--7-6-|
|-0----4----1----6--5-4-|

Riff 5 (1 time)


Riff 6
|-------------------------------------------------|
|-------------------------------------------------|
|-------11--------7---------11--------7-----------|
|--9-12-12-12-5-8-8-8--9-12-12-12-5-8-8-8---------| gtr 1
|-10-13----13-6-9---9-10-13----13-6-9---9-787878\-|
|-------------------------------------------------|
|
|-------------------------------------------------|
|-------------------------------------------------|
|-------------------------------------------------|
|-2-----------7-------2-----------7---------------| gtr2
|-------------------------------------------------|
|-0-----------5-------0-----------5---------------|

Riff 6 (1 time)
Repeat Riff 1b (1 time)
Repeat Riff 2 (1 time)

  Visit MetalTabs.com for more metal tablature

bottom separator

Contact Us | Privacy Policy | Disclaimer | Legal Notice
Copyright © 2001-2014 MetalTabs.com. All Rights Reserved.