top separator

Home

Forum

What's New

Submit a Tab

FAQ

Links

Contact Us

Link to Us

MetalTabs.com logo

Bands

0-9

A

B

C

D

E

F

G

H

I

J

K

L

M

N

O

P

Q

R

S

T

U

V

W

X

Y

Z

Search

What

Where
 

Lowbrow - "Fabrication" Guitar Tab

Plain Text Version
More Lowbrow Tabs

Hits: 2982
Updated: 2003-12-28 09:36:37

 

By:

Daniil

sendpm.gif

email.gif

Important note
This tab is available online because we obtained explicit permission from Lowbrow or their label.


#----------------------------------PLEASE NOTE---------------------------------#
#This file is the author's own work and represents their interpretation of the #
#song. You may only use this file for private study, scholarship, or research. #
#Unless specified otherwise, this is NOT an official tab from the band members.#
#------------------------------------------------------------------------------#

  Visit MetalTabs.com for more metal tablature
  
LOWBROW-Fabrication
Victims At Play-2000
Transcribed by Daniil Laletin
e-mail: dlaletin@mail.ru
version 1.0 October 2003

All corrections are welcome.


Riff 1
|------------------|
|------------------|
|------------------|
|------------------|
|------------------|
|-1111444400000000-|


Riff 2
|---------------------------------------------------|
|---------------------------------------------------|
|---------------------------------------------------|
|-6------5------6------8-7-6------5------6------8-7-|
|-6------5------6------6-5-6------5------6------6-5-|
|---0000---0000---0000-------0000---0000---0000-----|
|
|---------------------------------------------------|
|---------------------------------------------------|
|---------------------------------------------------|
|-6------5------6------8-7-6------5------6------8-7-|
|-6------5------6------6-5-6------5------6------6-5-|
|---0000---0000---0000-------0000---0000---0000-----|
    ....   ....   ....       ....   ....   ....
|---------------------------------------------------|
|---------------------------------------------------|
|---------------------------------------------------|
|-6------5------6------8-7-6------5------6------8-7-|
|-6------5------6------6-5-6------5------6------6-5-|
|---0000---0000---0000-------0000---0000---0000-6-5-|
|
|---------------------------------------------------|
|---------------------------------------------------|
|---------------------------------------------------|
|----------------------8-7----------------------8-7-|
|----6-------5---------6-5----6-------5---------6-5-|
|-5------4------5-0000-----5------4------5-0000-6-5-|
                  ....                     ....

Riff 3
|-------------------------------------------------------|
|-------------------------------------------------------|
|-------------------------------------------------------|
|-3------5------6------------3------5------6------------|
|-1------3------4------3/4\3-1------3------4------2/3\2-|
|---0000---0000---0000-1/2\1---0000---0000---0000-0/1\0-|

  Visit MetalTabs.com for more metal tablature

bottom separator

Contact Us | Privacy Policy | Disclaimer | Legal Notice
Copyright © 2001-2014 MetalTabs.com. All Rights Reserved.