top separator

Home

Forum

What's New

Submit a Tab

FAQ

Links

Contact Us

Link to Us

MuSpy.com

MetalTabs.com logo

Bands

0-9

A

B

C

D

E

F

G

H

I

J

K

L

M

N

O

P

Q

R

S

T

U

V

W

X

Y

Z

Search

What

Where
 

Lowbrow - "Done in" Guitar Tab

Plain Text Version
More Lowbrow Tabs

Hits: 2448
Updated: 2003-12-28 09:36:11

 

By:

Daniil

sendpm.gif

email.gif

Important note
This tab is available online because we obtained explicit permission from Lowbrow or their label.


#----------------------------------PLEASE NOTE---------------------------------#
#This file is the author's own work and represents their interpretation of the #
#song. You may only use this file for private study, scholarship, or research. #
#Unless specified otherwise, this is NOT an official tab from the band members.#
#------------------------------------------------------------------------------#

  Visit MetalTabs.com for more metal tablature
  
LOWBROW-Done In
Victims At Play-2000
Transcribed by Daniil Laletin
e-mail: dlaletin@mail.ru
version 1.0 October 2003

All corrections are welcome.


Riff 1
|------------------------------------------------------|
|------------------------------------------------------|
|------------------------------------------------------|
|------------------------------------------------------|
|----------------------------------5---5---6---6---3-3-|
|-00000000000000000000000000000000-3-0-3-0-4-0-4-0-1-1-|


Riff 2
|----------------------------------------------------|
|----------------------------------------------------|
|----------------------------------------------------|
|----------------------------------------------------|
|----------------------------------5-(5)-6-(6)-3-(3)-|
|-00000000000000000000000000000000-3-(3)-4-(4)-1-(1)-|

Riff 3
|-------------------------------------------|
|-------------------------------------------|
|-------------------------------------------|
|-------------------------------------------|
|----------------------------------------7"-|
|-0"--4"-3"-6"--5"-1"-0"--4"-3"-6"-5"-3"----|


Fill 1  Riff 4 (slow tremolo)
|---|  |-----------------------------|
|---|  |-----------------------------|
|---|  |-----------------------------|
|---|  |-----------------------------|
|-2-|  |-------4"----------2"--1"----|
|-0-|  |-0"----------3"-----------1"-|


Solo riff
|--------------------|
|--------------------|
|--------------------|
|-----6-------4--3---|
|-2---4---5---2--1-3-|
|-0---4---3--------1-|


Ending riff
|----------------------------------------------------------------------|
|----------------------------------------------------------------------|
|----------------------------------------------------------------------|
|----------------------------------------------------------------------|
|----5---5---6---6---3-3-5---5---6---6---3-3-5---5---6---6---3-3----5\-|
|-0"-3-0-3-0-4-0-4-0-1-1-3-0-3-0-4-0-4-0-1-1-3-0-3-0-4-0-4-0-1-1-0"-3\-|

  Visit MetalTabs.com for more metal tablature

bottom separator

Contact Us | Privacy Policy | Disclaimer | Legal Notice
Copyright © 2001-2014 MetalTabs.com. All Rights Reserved.