top separator

Home

Forum

What's New

Submit a Tab

FAQ

Links

Contact Us

Link to Us

MuSpy.com

MetalTabs.com logo

Bands

0-9

A

B

C

D

E

F

G

H

I

J

K

L

M

N

O

P

Q

R

S

T

U

V

W

X

Y

Z

Search

What

Where
 

My Dying Bride - "Cry of Mankind" Guitar Tab

Plain Text Version
More My Dying Bride Tabs

Hits: 6146
Rated: 2.71 out of 5 (7 votes)
Updated: 2001-06-04 07:59:06

 

Important note
This tab is available online because we obtained explicit permission from My Dying Bride or their label.


#----------------------------------PLEASE NOTE---------------------------------#
#This file is the author's own work and represents their interpretation of the #
#song. You may only use this file for private study, scholarship, or research. #
#Unless specified otherwise, this is NOT an official tab from the band members.#
#------------------------------------------------------------------------------#

  Visit MetalTabs.com for more metal tablature
  
Taken with permission from www.MyDyingBride.org

This is the keyboard/piano part arranged for (clean) guitar.
Let the notes on the two lowest strings ring as long as possible.

Tuning: C# F# B E G# C#

|-----------------------------------------0-2-3----
|-----0-----0-1-0---0---------0-----0---0-------3--
|---2-----2-------2---0-2---2-----2----------------
|-2-----2-----------------2-----2-----2------------
|--------------------------------------------------
|-0----------------------(0)-----------------------

|-----0-----0-3-2-0-2-----------------2-0---0------
|-1-3---1-3-----------3-1-0-1-3-0-1-3-----3---1-0--
|--------------------------------------------------
|--------------------------------------------------
|-3-----------------------2------------------------
|--------------------------------------------------

Tabbed by Georg Klint

  Visit MetalTabs.com for more metal tablature

bottom separator

Contact Us | Privacy Policy | Disclaimer | Legal Notice
Copyright © 2001-2014 MetalTabs.com. All Rights Reserved.