top separator

Home

Forum

What's New

Submit a Tab

FAQ

Links

Contact Us

Link to Us

MetalTabs.com logo

Bands

0-9

A

B

C

D

E

F

G

H

I

J

K

L

M

N

O

P

Q

R

S

T

U

V

W

X

Y

Z

Search

What

Where
 

Lowbrow - "Co-dependent" Guitar Tab

Plain Text Version
More Lowbrow Tabs

Hits: 2469
Updated: 2003-12-28 09:35:41

 

By:

Daniil

sendpm.gif

email.gif

Important note
This tab is available online because we obtained explicit permission from Lowbrow or their label.


#----------------------------------PLEASE NOTE---------------------------------#
#This file is the author's own work and represents their interpretation of the #
#song. You may only use this file for private study, scholarship, or research. #
#Unless specified otherwise, this is NOT an official tab from the band members.#
#------------------------------------------------------------------------------#

  Visit MetalTabs.com for more metal tablature
  
LOWBROW-Co-dependent
Victims At Play-2000
Transcribed by Daniil Laletin
e-mail: dlaletin@mail.ru
version 1.0 October 2003

All corrections are welcome.


Riff 1
|--------------------------------------|
|--------------------------------------|
|--------------------------------------|
|------------------6-------------------|
|------8-------5---4------8--------653-|
|-0-00-6-00000-3-0---0-00-6-000000-431-|


Riff 2
|-------------------------------------------------------------|
|-------------------------------------------------------------|
|-------------------------------------------------------------|
|-2--6-5-4/5\4\3-2--6-5---------2--6-5-4/5\4\3-2--6-5---------|
|-2--4-3-2/3\2\1-2--4-3-2-3-2-1-2--4-3-2/3\2\1-2--4-3-2/3\2\1-|
|-0--4-3-2/3\2\1-0--4-3-2-3-2-1-0--4-3-2/3\2\1-0--4-3-2/3\2\1-|
                        . . . .


Riff 3                              Riff 4
|-------------------------------|  |-----------------------------|
|-------------------------------|  |-----------------------------|
|-------------------------------|  |-----------------------------|
|------------5-4------------4-2-|  |-------------------------3---|
|------7-----3-2------5-----2-2-|  |----------6-5----------5-1-3-|
|-0000-5-000-----0000-3-000-----|  |-00000000-4-3-00000000-3---1-|

  Visit MetalTabs.com for more metal tablature

bottom separator

Contact Us | Privacy Policy | Disclaimer | Legal Notice
Copyright © 2001-2014 MetalTabs.com. All Rights Reserved.