top separator

Home

Forum

What's New

Submit a Tab

FAQ

Links

Contact Us

Link to Us

MetalTabs.com logo

Bands

0-9

A

B

C

D

E

F

G

H

I

J

K

L

M

N

O

P

Q

R

S

T

U

V

W

X

Y

Z

Search

What

Where
 

Lowbrow - "Disheveled" Guitar Tab

Plain Text Version
More Lowbrow Tabs

Hits: 2547
Updated: 2003-12-28 09:32:13

 

By:

Daniil

sendpm.gif

email.gif

Important note
This tab is available online because we obtained explicit permission from Lowbrow or their label.


#----------------------------------PLEASE NOTE---------------------------------#
#This file is the author's own work and represents their interpretation of the #
#song. You may only use this file for private study, scholarship, or research. #
#Unless specified otherwise, this is NOT an official tab from the band members.#
#------------------------------------------------------------------------------#

  Visit MetalTabs.com for more metal tablature
  
LOWBROW-Disheveled
Victims At Play-2000
Transcribed by Daniil Laletin
e-mail: dlaletin@mail.ru
version 1.0 October 2003

All corrections are welcome.

Not sure about :
Riff 1 (too noisy)




Riff 1                           Riff 2
|----------------------------|  |---------------------------------|
|----------------------------|  |---------------------------------|
|----------------------------|  |---------------------------------|
|----------10-9--------------|  |---------------------------------|
|-7-10-9-7--8-7-7-10-9-7-9-5-|  |--------4---3---3--------4---3---|
|-5--8-7-5------5--8-7-5-7-3-|  |-2-2222---2---2---2-2222---2---0-|
(with a lot of sliding)



Riff 3
|-------------------------------|
|-------------------------------|
|-------------------------------|
|-------------------------------|gtr 1
|-----2-----5-----4-----5-----4-|
|-0-3---0-3---0-3---0-3---0-3---|
|
|-------------------------------|
|-------------------------------|
|-------------------------------|
|-------------------------------|gtr 2
|-2-----------2-----------2-----|
|-0-----------0-----------0-----|




Riff 4
|-----------------------------------------------------------------|
|-----------------------------------------------------------------|
|-----------------------------------------------------------------|
|-----4-----4-3-------4-----4-7-5-----4-----4-3-------------------|
|-2-5-2-2-5-2-1-3-2-5-2-2-5-2-5-3-2-5-2-2-5-2-1-3-----------------|
|-0-3---0-3-----1-0-3---0-3-------0-3---0-3-----1-01111-01111-011-|

|-----------------------------------------------------------------|
|-----------------------------------------------------------------|
|-----------------------------------------------------------------|
|-----4-----4-3-------4-----4-7-5-----4-----4-3-------------------|
|-2-5-2-2-5-2-1-3-2-5-2-2-5-2-5-3-2-5-2-2-5-2-1-3-2-5\3---6\5-3/5-|
|-0-3---0-3-----1-0-3---0-3-------0-3---0-3-----1-0-3\1-0-4\3-1/3-|



Riff 5
|-----------------------------------------------------------|
|-----------------------------------------------------------|
|-----------------------------------------------------------|
|-----------------------------------------------------------|
|-3/5---3/6-----3/5---3/6-----3/5---3/6---------------------|
|-1/3-0-1/4-0-1-1/3-0-1/4-0-1-1/3-0-1/4-0-1-0-0-3-3-2-2-1-1-|

|-----------------------------------------------------------|
|-----------------------------------------------------------|
|-----------------------------------------------------------|
|-----------------------------------------------------------|
|-3/5---3/6-----3/5---3/6-----3/5---3/6-----2-5\3---6\5-3/5-|
|-1/3-0-1/4-0-1-1/3-0-1/4-0-1-1/3-0-1/4-0-1-0-3\1-0-4\3-1/3-|



Riff 6 (this riff is correct, but you must listen cd to play it correctly)
|-------------------------------------|
|-------------------------------------|
|-------------------------------------|
|-------------------------------------|
|-------------6-6-6-------------4-4-4-|
|-4\0-4\0-4\0-4-4-4-4\0-4\0-4\0-2-2-2-|



Riff 7                   Riff 8
|--------------------|  |-----------------------------|
|--------------------|  |-----------------------------|
|--------------------|  |-----------------------------|
|-4---8-7---5-4--4-4-|  |-----------------------------|
|-2---6-5---3-2--2-2-|  |---------5-3-5---------8-7-5-|
|-2---6-5---3-2--2-2-|  |-0-000-0-3-1-3-0-000-0-6-5-3-|
                 . .

  Visit MetalTabs.com for more metal tablature

bottom separator

Contact Us | Privacy Policy | Disclaimer | Legal Notice
Copyright © 2001-2014 MetalTabs.com. All Rights Reserved.