top separator

Home

Forum

What's New

Submit a Tab

FAQ

Links

Contact Us

Link to Us

MuSpy.com

MetalTabs.com logo

Bands

0-9

A

B

C

D

E

F

G

H

I

J

K

L

M

N

O

P

Q

R

S

T

U

V

W

X

Y

Z

Search

What

Where
 

Lowbrow - "Cold stale souls" Guitar Tab

Plain Text Version
More Lowbrow Tabs

Hits: 2326
Updated: 2003-12-28 09:31:46

 

By:

Daniil

sendpm.gif

email.gif

Important note
This tab is available online because we obtained explicit permission from Lowbrow or their label.


#----------------------------------PLEASE NOTE---------------------------------#
#This file is the author's own work and represents their interpretation of the #
#song. You may only use this file for private study, scholarship, or research. #
#Unless specified otherwise, this is NOT an official tab from the band members.#
#------------------------------------------------------------------------------#

  Visit MetalTabs.com for more metal tablature
  
LOWBROW-Cold Stale Souls
Victims At Play-2000
Transcribed by Daniil Laletin
e-mail: dlaletin@mail.ru
version 1.0 October 2003

All corrections are welcome.


Intro
|---------------------------------------------------------|
|---------------------------------------------------------|
|---------------------------------------------------------|
|-----------------------------------------------------5---|gtr 1
|-------------------------3---------------------------3-3-|
|-0000-0000-0000-0000-00001--0000-0000-0000-0000-0000---1-|
|
|---------------------------------------------------------|
|---------------------------------------------------------|
|---------------------------------------------------------|
|-----------------------------------------------------5---|gtr 2
|-------------------------3---------------------------3-3-|
|-------------------------1-----------------------------1-|

|---------------------------------------------------------|
|---------------------------------------------------------|
|---------------------------------------------------------|
|-----------------------------------------------------5---|gtr 1
|-------------------------3---------------------------3-3-|
|-0000-0000-0000-0000-00001--0000-0000-0000-0000-0000---1-|
|
|---------------------------------------------------------|
|---------------------------------------------------------|
|---------------------------------------------------------|
|-----------------------------------------------------5---|gtr 2
|-2-----------------------3--2--------(2)-------------3-3-|
|-0-----------------------1--0--------(0)---------------1-|



Riff 1
|---------------------------------------------------------|
|---------------------------------------------------------|
|---------------------------------------------------------|
|-----------------------------------------------------5---|
|-------------------------3---------------------------3-3-|
|-0000-0000-0000-0000-00001--0000-0000-0000-0000-0000---1-|



Riff 2
|---------------------------------|
|---------------------------------|
|---------------------------------|
|---------------------6-----------|
|-----5-----6---5-----4-----5---6-|
|-0-0-3-0-0-4-0-3-0-0---0-0-3-0-4-|


Riff 3
|-------------------------------------------------------|
|-------------------------------------------------------|
|-------------------------------------------------------|
|-----8----------6---------------8----------6-----------|
|-----6--------5-4-----3-2-------6--------5-4-----3-2---|
|-0-0----0-0-0-3---0-0-----3-0-0----0-0-0-3---0-0-----1-|


Riff 4                                Ending chord
|---------------------------------|  |------------|
|---------------------------------|  |------------|
|---------------------------------|  |------------|
|-----------------6---------------|  |------------|
|-5-----6-----5---4-----5-----6---|  |-2------(2)-|
|-3-0-0-4-0-0-3-0---0-0-3-0-0-4-0-|  |-0------(0)-|

  Visit MetalTabs.com for more metal tablature

bottom separator

Contact Us | Privacy Policy | Disclaimer | Legal Notice
Copyright © 2001-2014 MetalTabs.com. All Rights Reserved.