top separator

Home

Forum

What's New

Submit a Tab

FAQ

Links

Contact Us

Link to Us

MuSpy.com

MetalTabs.com logo

Bands

0-9

A

B

C

D

E

F

G

H

I

J

K

L

M

N

O

P

Q

R

S

T

U

V

W

X

Y

Z

Search

What

Where
 

Lowbrow - "Intered in dirt" Guitar Tab

Plain Text Version
More Lowbrow Tabs

Hits: 2418
Updated: 2003-12-28 09:34:56

 

By:

Daniil

sendpm.gif

email.gif

Important note
This tab is available online because we obtained explicit permission from Lowbrow or their label.


#----------------------------------PLEASE NOTE---------------------------------#
#This file is the author's own work and represents their interpretation of the #
#song. You may only use this file for private study, scholarship, or research. #
#Unless specified otherwise, this is NOT an official tab from the band members.#
#------------------------------------------------------------------------------#

  Visit MetalTabs.com for more metal tablature
  
LOWBROW-Interred In Dirt
Victims At Play-2000
Transcribed by Daniil Laletin
e-mail: dlaletin@mail.ru
version 1.0 October 2003

All corrections are welcome.

Not sure about :
Riff 5
Riff 7


Riff 1a
|------------------------------------------------------------------|
|------------------------------------------------------------------|
|------------------------------------------------------------------|
|-------------4444----------------------------4444-----------------|
|-----55554444--------55554444--------55554444--------555544443333-|
|-3333------------3333--------11113333------------3333-------------|

Riff 1a (2 times)


Riff 1b
|---------------------------------------------------------------------|
|---------------------------------------------------------------------|
|---------------------------------------------------------------------|
|-------------4444----------------------------4444--------------------|
|-----55554444--------55554444--------55554444--------555544443333--5-|
|-3333------------3333--------11113333------------3333--------------3-|
|
|---------------------------------------------------------------------|
|---------------------------------------------------------------------|
|---------------------------------------------------------------------|
|---------------------------------------------6----------------3------|
|-5-555-5-----6-555-5---------3-555-5---------4-555-5----------1-5--5-|
|-3-333-3-----4-333-3---------1-333-3-----------333-3=-----------3--3-|

Riff 1b (1 time)


Riff 2a             |1,2,3 |4
|-------------------|------|---------|
|-------------------|------|---------|
|-------------------|------|---------|
|-6----5----3----3--|-3-5--|---------|
|-4----3----1----1--|-1-3--|---5-4-3-|
|---00---00---00----|------|00-3-2-1-|

Riff 2a (1 time)


Riff 2b             |1,2,3 |4                  Fill 1
|-------------------|------|---------------|  |---------|
|-------------------|------|---------------|  |---------|
|-------------------|------|---------------|  |---------|
|-6----5----3----3--|-3-5--|---------5-4-3-|  |---------|
|-4----3----1----1--|-1-3--|---5-4-3-5-4-3-|  |-5-4-3-2-|
|---00---00---00----|------|00-3-2-1-3-2-1-|  |-3-2-1-0-|

Riff 2b (1 time)
Repeat Riff 2a (2 times)
Fill 1 (1 time)


Riff 3
|-------------------------------------------|
|-------------------------------------------|
|-------------------5-4---------------------|
|-------------------3-2--------------5------|
|------1h2-1h2------3-2------1h2-1h2-3------|
|-0000---------0000-----0000=----------1111-|

Riff 3 (4 times)


Riff 4
|-----------------------------------------------------|
|-----------------------------------------------------|
|-------------------5-4-------------------------------|
|-------------------3-2-------------------------------|
|------1h2-1h2------3-2------1h2-1h2---------55554444-|
|-0000---------0000-----0000---------33333333---------|

|-----------------------------------------------------|
|-----------------------------------------------------|
|-------------------5-4-------------------------------|
|-------------------3-2----------------------33332222-|
|------1h2-1h2------3-2------1h2-1h2-1111111155554444-|
|-0000---------0000-----0000---------33333333---------|

Riff 4 (2 times)


Riff 5                          Riff 6
|---------------------------|  |-------------|
|---------------------------|  |-------------|
|---------------------------|  |-------4--3--|
|-----2-----2-----2-----3-4-|  |-6--5--2--1--|
|---1-2---1-2---1-2---1-1-2-|  |-4--3--2--1--|
|-0-1---0-1---0-1---0-1-1-2-|  |-4--3--------|

Riff 5 (4 times)
Riff 6 (1 time)

Riff 7
|----------------------------------|
|----------------------------------|
|----------------------------------|
|-----2-----2-----2---1-2-3-4-5-6--|
|---1-2---1-2---1-2---1-2-3-4-5-6--|
|-0-1---0-1---0-1---0--------------|

Riff 7 (4 times)
Repeat Riff 6 (1 times)
Repeat Riff 1a (2 times)
Repeat Riff 1b (1 time)
Repeat Riff 2a (1 time)
Repeat Riff 2b (1 time)
Repeat Riff 2a (2 times)
Fill 1 (1 time)




There is a hidden track on 18:46 of this song,
i called it "The Great Beer Ballad", in original
here plays two guitars, but i transcribed for one,
as i play. I think there is a few negligible mistakes,
but everything sounds good for me.


Acoustic guitar

|----------------------------------------------------------|
|----------------------------------------------------------|
|-7-7------------7-7-5----------7-8---7---8----7-5---3---2-|
|---5-8-7-5-4-00---7---8-7-8-55---5-5-5-5-5-55-5-0-0-0-0-0-|
|----------------------------------------------------------|
|----------------------------------------------------------|
    .         ..   .         ..             ..

|-----------------------------------------------------------|
|-----------------------------------------------------------|
|-7-------7-------5-7-8-7-5-----5-8-7-8-7-5---0---0---0---0-|
|---8-7-8---5-7-8---7-------7-8-----5-------5---7---0---4---|
|-----------------------------------------------------------|
|-----------------------------------------------------------|
                    .               .
|-------------------------------------------------|
|-------------------------------------------------|
|---7-8-7-------5-------------------7-8-7-------5-|
|-5-------0-7-8---5-8-7-5-0-7-5-4-5-------0-7-8---|
|-------------------------------------------------|
|-------------------------------------------------|

|-------------------------------------------------------------------|
|-----------------------------------------------------8-------8---8-|
|---0---0---0---0---0---0---0---0---8---0---0---0---7---7---7---7-7-|
|-5---7---0---4---5---7---0---4---5---8---7---0---5-------5-------5-|
|-------------------------------------------------------------------|
|-------------------------------------------------------------------|
 I know that this part is wrong, but i can't tune my guitar
 like on this track.

  Visit MetalTabs.com for more metal tablature

bottom separator

Contact Us | Privacy Policy | Disclaimer | Legal Notice
Copyright © 2001-2014 MetalTabs.com. All Rights Reserved.