top separator

Home

Forum

What's New

Submit a Tab

FAQ

Links

Contact Us

Link to Us

MuSpy.com

MetalTabs.com logo

Bands

0-9

A

B

C

D

E

F

G

H

I

J

K

L

M

N

O

P

Q

R

S

T

U

V

W

X

Y

Z

Search

What

Where
 

Lowbrow - "Bloody meat" Guitar Tab

Plain Text Version
More Lowbrow Tabs

Hits: 2701
Updated: 2003-12-28 09:30:23

 

By:

Daniil

sendpm.gif

email.gif

Important note
This tab is available online because we obtained explicit permission from Lowbrow or their label.


#----------------------------------PLEASE NOTE---------------------------------#
#This file is the author's own work and represents their interpretation of the #
#song. You may only use this file for private study, scholarship, or research. #
#Unless specified otherwise, this is NOT an official tab from the band members.#
#------------------------------------------------------------------------------#

  Visit MetalTabs.com for more metal tablature
  
LOWBROW-Bloody Meat
Victims At Play-2000
Transcribed by Daniil Laletin
e-mail: dlaletin@mail.ru
version 1.0 October 2003

All corrections are welcome.


Riff 1
|------------------|
|------------------|
|------------------|
|----5----3--------|
|-2--3-2--1-2--3-2-|
|-0----0----0--1-0-|


Riff 2
|----------------------------------------------------------------------------------|
|----------------------------------------------------------------------------------|
|----------------------------------------------------------------------------------|
|-------------------5-------------------3------------------------------------------|
|-2-----------------3-2-----------------1-2-----------------3-2----------------3-3-|
|-0-000-000-000-0000--0-000-000-000-0000--0-000-000-000-00001-0-000-000-000-0001-1-|


Riff 3                                                        Fill
|--------------------------------------------------------|  |-----------|
|--------------------------------------------------------|  |-----------|
|--------------------------------------------------------|  |-----------|
|--------------------------------------------------------|  |-----------|
|-5---5--------6---6--------5---5---------------44443333-|  |-2-----(2)-|
|-3-0-3-000000-4-0-4-000000-3-0-3-00000011113333---------|  |-0-----(0)-|


Riff 4
|-------------------------|
|-------------------------|
|-------------------------|
|-7--6--------7--6--------|
|-5--4--7--6--5--4--7--6--|
|-------5--4--5--4--5--4--|

  Visit MetalTabs.com for more metal tablature

bottom separator

Contact Us | Privacy Policy | Disclaimer | Legal Notice
Copyright © 2001-2014 MetalTabs.com. All Rights Reserved.