top separator

Home

Forum

What's New

Submit a Tab

FAQ

Links

Contact Us

Link to Us

MuSpy.com

MetalTabs.com logo

Bands

0-9

A

B

C

D

E

F

G

H

I

J

K

L

M

N

O

P

Q

R

S

T

U

V

W

X

Y

Z

Search

What

Where
 

Cadaveria - "Declaration Of Spiritual Independence" Guitar Tab

Plain Text Version
More Cadaveria Tabs

Hits: 2992
Updated: 2003-12-28 09:29:36

 

By:

Daniil

sendpm.gif

email.gif

Important note
This tab is available online because we obtained explicit permission from Cadaveria or their label.


#----------------------------------PLEASE NOTE---------------------------------#
#This file is the author's own work and represents their interpretation of the #
#song. You may only use this file for private study, scholarship, or research. #
#Unless specified otherwise, this is NOT an official tab from the band members.#
#------------------------------------------------------------------------------#

  Visit MetalTabs.com for more metal tablature
  
CADAVERIA-Declaration Of Spiritual Independence
The Shadows' Madame-2002
Transcribed by Daniil Laletin
e-mail: dlaletin@mail.ru
version 1.0 October 2003

All corrections are welcome.


Intro
|-------------------------|
|-------------------------|
|-------------------------|
|-------------------------|
|-55577788810-55577788810-|
|-------------------------|
|
|-------------------------|
|-------------------------|
|-------------------------|
|-7-----------7-----------|
|-5-----------5-----------|
|-------------------------|


Riff 1
|--------------------------------------------------------|
|--------------------------------------------------------|
|--------------------------------------------------------|
|--------------------------------------------------------|
|-555777888101010888777555777555777888101010888777555777-|
|--------------------------------------------------------|
|
|--------------------------------------------------------|
|--------------------------------------------------------|
|--------------------------------------------------------|
|--------------------------------------------------------|
|-555777888101010888777555777555777888101010888777555777-|
|--------------------------------------------------------|

|---------------------------------------------------------|
|---------------------------------------------------------|
|---------------------------------------------------------|
|-555777888101010888777555777555777888101010-5-7-8-5-7-8--|
|---------------------------------------------------------|
|---------------------------------------------------------|
|
|---------------------------------------------------------|
|---------------------------------------------------------|
|---------------------------------------------------------|
|-555777888101010888777555777555777888101010-5-7-8--------|
|--------------------------------------------------8-7-10-|
|---------------------------------------------------------|


Riff 2
|-------------------------------------------------|
|-------------------------------------------------|
|-------------------------------------------------|
|-------------------------------------------------|
|-5-5555-8-8-8888-5-5-5555-8-8888-7-7777-5-5555-5-|
|-------------------------------------------------|

|-------------------------------------------------|
|-------------------------------------------------|
|-------------------------------------------------|
|-5-5555-8-8-8888-5-5-5555-8-8888-7-7777-5-5555-5-|
|-------------------------------------------------|
|-------------------------------------------------|


Riff 3
|---------------------------------------|
|---------------------------------------|
|---------------------------------------|
|---------------------------------------|
|-5555555588888888-55555555888877775555-|
|---------------------------------------|

|---------------------------------------|
|---------------------------------------|
|---------------------------------------|
|-5555555588888888-55555555888877775555-|
|---------------------------------------|
|---------------------------------------|


Riff 4
|---------------------------------------|
|---------------------------------------|
|---------------------------------------|
|---------------------------------------|
|-5555555588888888-55555555888877775555-|
|---------------------------------------|
  ................ ....................

|-------------------------------------------|
|-------------------------------------------|
|--------------------------------------a.h.-|
|-5555555588888888-55555555888877775555-5---|
|-------------------------------------------|
|-------------------------------------------|
  ................ ....................


Riff 5                Riff 6
|-----------------|  |-------------|
|-----------------|  |-------------|
|-----------------|  |-------------|
|-7-7-10-10-7-7-6-|  |-------------|
|-5-5--8--8-5-5-4-|  |-7-8-5-7-3-2-|
|-----------------|  |-5-6-3-5-1-0-|


Riff 7
|---------------------------------|
|---------------------------------|
|---------------------------------|
|-7-7-7-7-7-7-7-7-7-7-7-7-7-7-7-7-|
|-5-5-5-5-5-5-5-5-5-5-5-5-5-5-5-5-|
|-.-.-.-.-.-.-.-.-.-.-.-.-.-.-.-.-|


Riff 8
|---------------------------------------------|
|---------------------------------------------|
|---------------------------------------------|
|-7-7-7-7-7-7-7-7-7-7-7-7-7-7-7-7-7-7-7-7-7-7-|
|-5-5-5-5-5-5-5-5-5-5-5-5-5-5-5-5-5-5-5-5-5-5-|
|-.-.-.-.-.-.-.-.-.-.-.-.-.-.-.-.-.-.-.-.-.-.-|
|
|---------------------------------------------|
|-10h11p10-8-10----10h11p10-11-15-14-10h11p10-|
|---------------------------------------------|
|---------------------------------------------|
|---------------------------------------------|
|---------------------------------------------|

|---------------------------------------------|
|---------------------------------------------|
|---------------------------------------------|
|-7-7-7-7-7-7-7-7-7-7-7-7-7-7-7-7-7-7-7-7-7-7-|
|-5-5-5-5-5-5-5-5-5-5-5-5-5-5-5-5-5-5-5-5-5-5-|
|-.-.-.-.-.-.-.-.-.-.-.-.-.-.-.-.-.-.-.-.-.-.-|
|
|------------------12h13p12-10-15-13-12h13p12-|
|-10h11p10-8-10-------------------------------|
|---------------------------------------------|
|---------------------------------------------|
|---------------------------------------------|
|---------------------------------------------|


Riff 9
|----------------------------------------|
|----------------------------------------|
|----------------------------------------|
|-7-7-7-7-7-7-7-7-7-7-7-7-7-7-7-7-7-10-7-|
|-5-5-5-5-5-5-5-5-5-5-5-5-5-5-5-5-5--8-5-|
|-.-.-.-.-.-.-.-.-.-.-.-.-.-.-.-.--------|


Riff 10
|-----------------------------------------|
|-----------------------------------------|
|-----6-----6-----6-7-----6-----6-----6-5-|
|-4-7---4-7---4-7-----4-7---4-7---4-7-----|
|-----------------------------------------|
|-----------------------------------------|

|-------------------------------------|
|-------------------------------------|
|-----6-----6-----6-7-7h9p7-6h7p6-6---|
|-4-7---4-7---4-7-------------------7-|
|-------------------------------------|
|-------------------------------------|

on last time play this
|------------------------------------------|
|------------------------------------------|
|-----6-----6-----6-7-7h9p7-6h7p6-6~---9-6-|
|-4-7---4-7---4-7----------------------7-4-|
|------------------------------------------|
|------------------------------------------|

  Visit MetalTabs.com for more metal tablature

bottom separator

Contact Us | Privacy Policy | Disclaimer | Legal Notice
Copyright © 2001-2014 MetalTabs.com. All Rights Reserved.