top separator

Home

Forum

What's New

Submit a Tab

FAQ

Links

Contact Us

Link to Us

MetalTabs.com logo

Bands

0-9

A

B

C

D

E

F

G

H

I

J

K

L

M

N

O

P

Q

R

S

T

U

V

W

X

Y

Z

Search

What

Where
 

Sodom - "Agent Orange" Guitar Tab

Plain Text Version
More Sodom Tabs

Hits: 13428
Rated: 3.50 out of 5 (8 votes)
Updated: 2003-12-28 09:19:04

 

Important note
This tab is available online because we obtained explicit permission from Sodom or their label.


#----------------------------------PLEASE NOTE---------------------------------#
#This file is the author's own work and represents their interpretation of the #
#song. You may only use this file for private study, scholarship, or research. #
#Unless specified otherwise, this is NOT an official tab from the band members.#
#------------------------------------------------------------------------------#

  Visit MetalTabs.com for more metal tablature
  
SODOM - AGENT ORANGE
(Agent Orange, 1989)

Guitar tab

Tabbed by Radiohater, 2002
Mistakes fixed by Adrahil, 2003

Date Transcribed: 24-Nov-03,  18:23
_________________________________________________________________________________________

Key
= after note = vibrato
^ after note = heavy vibrato
\ = slide down
/ = slide up
+ = tap
h = hammer
p = pull
n = natural harmonic
s = pinching harmonic (squeal)
* = tremolo pick
t = trill
b = bend

Standard Tuning (E, A, D, G, B, E)

Riff 1

E ---------------------------------------------------------------
B ---------------------------------------------------------------
G -------------------------4/5----------------------------4\3-5\4
D \2-2-4---5-----3---------4/5-5--2-2-4---5-----3---------4\3-5\4
A \2-2-4---5-----3---------2/3-5--2-2-4---5-----3---------2\1-3\2
E \0-0-2-0-3-0-0-1-0-0-0-0-----3--0-0-2-0-3-0-0-1-0-0-0-0--------

Riff 2

E ---------------------------------------------------------------------------------
B ---------------------------------------------------------------------------------
G -----------9---------------------------------------------------------------------
D -2---------9---------2---------2---------0---------0-----------------------------
A -2---------7---------3---------3---------0---------0---------3---------3---------
E -0---0-0-0-----0-0-0-----0-0-0-----0-0-0-2---2-2-2-2---2-2-0-1---1-1-1-1---1-1-1-

Riff 3

E ---------------------------------------------------------------------------------|(2nd
B ---------------------------------------------------------------------------------|time)
G 4---------4---------5---------5--------------------------------------------------|----
D 4---------4---------5---------5---------4---------4---------5\4--------5\4-------|2...
A 2---2-2-2-2---2-2-2-3---3-3-3-3---3-3-3-4---------4---------5\4--------5\4-------|2...
E ----------------------------------------2---2-2-2-2---2-2-2-3\2--2-2-2-3\2--2-2-2|0...


Riff 4

E ---------------------------------------------------------------------------------------
B ---------------------------------------------------------------------------------------
G ---------------------------------------------------------------------------------4-----
D -------------------------------------5---9\8-------------------------------------4--4--
A -------------------------------------5---9\8-------------------------------------2--4--
E -00-00-00-00-00-00-00-00-00-00-00-00-3-0-7\6-00-00-00-00-00-00-00-00-00-00-00-00----2--

E ----------------------------------------------------------------------------------
B ----------------------------------------------------------------------------------
G ----------------------------------------------------------------------------------
D -------------------------------------5---9\8----------------------4-----3-----9---
A -------------------------------------5---9\8----------------------4-----3-----9---
E -00-00-00-00-00-00-00-00-00-00-00-00-3-0-7\6-00-00-00-00-00-00-00-2-0-0-1-0-0-7---

Riff 5

E ---------------------------------------------------------------------------------------
B ---------------------------------------------------------------------------------------
G ---------------------------------------------------------------------------------------
D ---------------------------------------------------------------------------------------
A ----------------------------------------33-33-22-22-22-22-22-22-22-22-22-22-22-22-22---
E -11-11-11-11-11-11-11-11-11-11-11-11-11----------------------------------------------0-

Riff 5A

E ------------------------------------------------------------------------------
B ------------------------------------------------------------------------------
G ----------------5--4----------------------------------5--4--------------------
D -3--------------5--4-------------------3--------------5--4---------4-5--5--5--
A -3--------------3--2-------------------3--------------3--2---------4-5--5--5--
E -1----------------------------------0--1---------------------------2-3--3--3--

Riff 6

E ---------------------------------
B ---------------------------------
G ---------------------------------
D -2-2-2-2-2-2-2-2-2-2-2-2-2-2-2-2-
A -2-2-2-2-2-2-2-2-2-2-2-2-2-2-2-2-
E -0-0-0-0-0-0-0-0-0-0-0-0-0-0-0-0-

Riff 7

E ---------------------------------------------------------------
B ---------------------------------------------------------------
G -5h4---4h3-----------------------------------------------------
D -------------5--2---------------5h4---3h2---3--2---------------
A -------------5--2---------------------------3--2---------------
E -----0-----0-3--0-0-0-0-0-0-0-0-----0-----0-1--0-0-0-0-0-0-0-0-

Riff 8

E --------------------------------------
B --------------------------------------
G -9--------8---------------------------
D -9--------8--------10--------9--------
A -7--------6--------10--------9--------
E -------------------8---------7--------

Riff 9

E -------------------------------------------------------------------------------------|+
B -------------------------------------------------------------------------------------|+
G 9----------9----------9----------9----------8----------8----------8----------8-------|+
D 9----------9----------9----------9----------8----------8----------8----------8-------|+
A 7-77-77-77-7-77-77-77-7-77-77-77-7-77-77-77-6-66-66-66-6-66-66-66-6-66-66-66-6-66-666|+
E -------------------------------------------------------------------------------------|+

>Riff 9A
E -----------------------------------------------------------------------------
B -----------------------------------------------------------------------------
G -5----------5----------5----------5----------4----------4--------------------
D -5----------5----------5----------5----------4----------4--------------------
A -3-33-33-33-3-33-33-33-3-33-33-33-3-33-33-33-2-22-22-22-2-22-22-22------2====
E -------------------------------------------------------------------2====-----

>Riff 9B
E -----------------------------------------------------------------------------
B -----------------------------------------------------------------------------
G -5----------5----------5----------5----------4----------4--------------------
D -5----------5----------5----------5----------4----------4---------------1====
A -3-33-33-33-3-33-33-33-3-33-33-33-3-33-33-33-2-22-22-22-2-22-22-22-2====-----
E -----------------------------------------------------------------------------

>Riff 9C
E -----------------------------------------------------------------
B -----------------------------------------------------------------
G -5----------5----------5----------5--5--4------------------------
D -5----------5----------5----------5--5--4------------------------
A -3-33-33-33-3-33-33-33-3-33-33-33-3--3--2--------3-2-------------
E -----------------------------------------------------3-2-0-2-3-2-


Riff Order:

Riff 1 x 4
Riff 2 x 3
Riff 3 x 2
Riff 4 x 4
Riff 5 x 2
Riff 5A x 1
Riff 4 x 3
Riff 5 x 2
Riff 5A x 1
Riff 6 x 1
Riff 7 x 4
Riff 6 x 1
Riff 8 x 2
Riff 9 + Riff 9A x 1
Riff 9 + Riff 9B x 1
Riff 9 + Riff 9A x 1
Riff 9 + Riff 9C x 1
Riff 4 x 1
Solo over Riff 4 x 3
Solo over Riff 5 x 2
Solo over Riff 5A x 1
Riff 4 x 3
Riff 5 x 2
Riff 5A x 1

  Visit MetalTabs.com for more metal tablature

bottom separator

Contact Us | Privacy Policy | Disclaimer | Legal Notice
Copyright © 2001-2014 MetalTabs.com. All Rights Reserved.