top separator

Home

Forum

What's New

Submit a Tab

FAQ

Links

Contact Us

Link to Us

MetalTabs.com logo

Bands

0-9

A

B

C

D

E

F

G

H

I

J

K

L

M

N

O

P

Q

R

S

T

U

V

W

X

Y

Z

Search

What

Where
 

Sodom - "Agent Orange" Bass Tab

Plain Text Version
More Sodom Tabs

Hits: 7617
Rated: 4.33 out of 5 (6 votes)
Updated: 2003-12-28 09:17:39

 

Important note
This tab is available online because we obtained explicit permission from Sodom or their label.


#----------------------------------PLEASE NOTE---------------------------------#
#This file is the author's own work and represents their interpretation of the #
#song. You may only use this file for private study, scholarship, or research. #
#Unless specified otherwise, this is NOT an official tab from the band members.#
#------------------------------------------------------------------------------#

  Visit MetalTabs.com for more metal tablature
  
SODOM - AGENT ORANGE
(Agent Orange, 1989)

Bass tab

Tabbed by Adrahil, 2003

Date Transcribed: 24-Nov-03,  18:23
_________________________________________________________________________________________

Standard Tuning (E, A, D, G)

Riff 1 x 4
|-----------------------------------|--------------------------------------|
|-----------------------------------|--------------------------------------|
|---------------------------2-h3----|---------------------------2\1-3\2----|
|---0-0-2-0-3-0-0-1-0-0-0-0------3--|--0-0-2-0-3-0-0-1-0-0-0-0-------------|

Riff 2 x 3
|---------------------------------------------------------------------------------|
|---------------------------------------------------------------------------------|
|------------7--------3--------3--------------------------------------------------|
|--0--0-0-0-----0-0-0-----0-0-0-----0-0-0-2---2-2-2-2---2-2-0-1---1-1-1-1---1-1-1-|

Riff 3 x 2
|-------------------------------------------------------------------------------|(2nd
|-------------------------------------------------------------------------------|time)
|---2--------2--------3--------3------------------------------------------------|----
|------0-0-0----0-0-0----0-0-0----0-0-0-2--2-2-2-2---2-2-2-3\2--2-2-2-3\2--2-2-2|0...

*
|--------|   |--------|
|--------|   |--------|
|--------|   |--------|
|---0----|   |---0----|

Riff 4 x 1
|----------|-----------7/9-------------|-----------------------|
|----------|---------------------------|-----------------------|
|---2------|---------------------------|--------------------2--|
|------2---|---0-0-0-0-----0-0-0-0-0-0-|--00--2--00--1--00-----|

Riff 5 x 3
|------------------------|---------------------|
|------------------------|---------------------|
|-------------------2\1--|---------------2-----|
|-000000000000--3-0------|-000000000000-----2--|

|------------------------|---------------------------------|
|------------------------|---------------------------------|
|-------------------2\1--|-------------------------------2-|
|-000000000000--3-0------|-000000000000-00--2--00--1--00---|

Riff 6 x 2
|---------------------------------------------------------------------------------------|
|---------------------------------------------------------------------------------------|
|----------------------------------------33-33-22-22-22-22-22-22-22-22-22-22-22-22-22---|
|-11-11-11-11-11-11-11-11-11-11-11-11-11----------------------------------------------0-|


Riff 7 x 1
|-----------------------------------------------------------------------------|
|-----------------------------------------------------------------------------|
|----------------3--2----------------------------------3--2-------------------|
|-1----------------------------------0--1---------------------------2-3--3--3-|

Riff 8 x 1
|---------------------------------|
|---------------------------------|
|---------------------------------|
|-0-0-0-0-0-0-0-0-0-0-0-0-0-0-0-0-|

Riff 9 x 3
|-5h4---4h3------|-----------------|
|----------------|-----------------|
|----------------|-----------------|
|-----0-----0-3--|-0-0-0-0-0-0-0-0-|

|----------------|-----------------|
|-5h4---3h2------|-----------------|
|----------------|-----------------|
|-----0-----0-1--|-0-0-0-0-0-0-0-0-|

Riff 10 x 1
|----------------|-----------------|
|----------------|-----------------|
|-7-----7-----7--|-----------------|
|----------------|-0-0-0-0-0-0-0-0-|

|----------------|-----------------|
|-5h4---3h2------|-----------------|
|----------------|-----------------|
|-----0-----0-1--|-0-0-0-0-0-0-0-0-|

|-------------------------------------|
|-------------------------------------|
|-------------------------------------|
|--0-0-0-0-0-0-0-0-0-0-0-0-0-0-0-0-0--|

Riff 11 x 2
|------------------------|-------------------|
|------------------------|-------------------|
|--7---------------------|--6----------------|
|------------------------|-------------------|

|------------------------|-------------------|
|------------------------|-------------------|
|--3---------------------|--2----------------|
|------------------------|-------------------|

Riff 12

x4               x4               x4               x2
|---------------||---------------||---------------||---------------||----------------||
|---------------||---------------||---------------||---------------||----------------||
|-7-------------||-6-------------||-3-------------||-2-------------||-------------2--||
|--00000000-----||--00000000-----||--00000000-----||--00000000-----||--2-------------||


x4               x4               x4               x2
|---------------||---------------||---------------||---------------||----------------||
|---------------||---------------||---------------||---------------||-------------1--||
|-7-------------||-6-------------||-3-------------||-2-------------||--2-------------||
|--00000000-----||--00000000-----||--00000000-----||--00000000-----||----------------||

x4               x4               x4               x2
|---------------||---------------||---------------||---------------||----------------||
|---------------||---------------||---------------||---------------||----------------||
|-7-------------||-6-------------||-3-------------||-2-------------||-------------2--||
|--00000000-----||--00000000-----||--00000000-----||--00000000-----||--2-------------||

x4               x4               x3               x1
|---------------||---------------||---------------||--------------------------------|
|---------------||---------------||---------------||--------------------------------|
|-7-------------||-6-------------||-3-------------||-3--3--2--------3-2-------------|
|--00000000-----||--00000000-----||--00000000-----||--------------------3-2-0-2-3-2-|







Riff Order:

Riff 1 x 4
Riff 2 x 3
Riff 3 x 2
Riff 4 x 1
Riff 5 x 3
Riff 6 x 2
Riff 7 x 1
Riff 5 x 3
Riff 6 x 2
Riff 7 x 1
Riff 8 x 1
Riff 9 x 3
Riff 10 x 1
Riff 11 x 2
Riff 12
Riff 4 x 1
Riff 5 x 3
Riff 6 x 2
Riff 7 x 1
Riff 5 x 3
Riff 6 x 2
Riff 7 x 1

  Visit MetalTabs.com for more metal tablature

bottom separator

Contact Us | Privacy Policy | Disclaimer | Legal Notice
Copyright © 2001-2014 MetalTabs.com. All Rights Reserved.