top separator

Home

Forum

What's New

Submit a Tab

FAQ

Links

Contact Us

Link to Us

MetalTabs.com logo

Bands

0-9

A

B

C

D

E

F

G

H

I

J

K

L

M

N

O

P

Q

R

S

T

U

V

W

X

Y

Z

Search

What

Where
 

Besatt - "Ave Master Lucifer" Guitar Tab

Plain Text Version
More Besatt Tabs

Hits: 5722
Rated: 4.60 out of 5 (5 votes)
Updated: 2003-12-28 09:11:36

 

Important note
This tab is available online because we obtained explicit permission from Besatt or their label.


#----------------------------------PLEASE NOTE---------------------------------#
#This file is the author's own work and represents their interpretation of the #
#song. You may only use this file for private study, scholarship, or research. #
#Unless specified otherwise, this is NOT an official tab from the band members.#
#------------------------------------------------------------------------------#

  Visit MetalTabs.com for more metal tablature
  
                                  BESATT - "Ave Master Lucifer" from HELLSTORM
                                         Tabbed by Count NECRO from Poland


Riff 1

E----------------------------------
H----------------------------------
G----------------------------------
D---10-9-10-11-10-9-10-------------
A---10-9-10-11-10-9-10-------------
E---8--7-8--9--8--7-8--------------


Riff 2

E-----------------------------------------
H-----------------------------------------
G-----------------------------------------
D-----------------------------------------
A---33333333--------33335566--------------
E-----------44446666--------44446666------





Riff Riff 3

E------------------------------------------------------------
H------------------------------------------------------------
G-----------------------------------------------8-8-8--------
D-----------------------------------------------8-8-8-8-8-8--
A---10-10-10-10-10-10-10---------10-10-10-5-5-5-6-6-6-8-8-8--
E---8--8--8--8--8--8--8--5-6-5-6-8--8--8--3-3-3-------6-6-6--



Riff 1 x4
Riff 2 x6
Riff 1 x4
Riff 2 x6
Riff 1 x4
Riff 3 x4-fast
       x5-slow
       x4-fast again
Riff 1- to the ending



This is not dificult song but it is very powerfull.
If you got any questions pleass mail me necro666@op.pl
BLACK METAL RULES!!!!!!!

  Visit MetalTabs.com for more metal tablature

bottom separator

Contact Us | Privacy Policy | Disclaimer | Legal Notice
Copyright © 2001-2014 MetalTabs.com. All Rights Reserved.