top separator

Home

Forum

What's New

Submit a Tab

FAQ

Links

Contact Us

Link to Us

MetalTabs.com logo

Bands

0-9

A

B

C

D

E

F

G

H

I

J

K

L

M

N

O

P

Q

R

S

T

U

V

W

X

Y

Z

Search

What

Where
 

My Dying Bride - "Cry of Mankind" Guitar Tab

Plain Text Version
More My Dying Bride Tabs

Hits: 6796
Rated: 3.60 out of 5 (10 votes)
Updated: 2001-06-04 07:59:00

 

Important note
This tab is available online because we obtained explicit permission from My Dying Bride or their label.


#----------------------------------PLEASE NOTE---------------------------------#
#This file is the author's own work and represents their interpretation of the #
#song. You may only use this file for private study, scholarship, or research. #
#Unless specified otherwise, this is NOT an official tab from the band members.#
#------------------------------------------------------------------------------#

  Visit MetalTabs.com for more metal tablature
  
Taken with permission from www.MyDyingBride.org

=|----------------
=|-12-------------
=|----9-12-11-----
=|------------9-12                     second-guitar-whole-song-riff
=|----------------
=|----------------

=|---------------
=|---------------
=|---------------                       #1
=|-------0>2-----
=|-----2----3---2
=|-0-------------

=|--------------------------|--------------------------|
=|--------------------------|--------------------------|
=|--------------------------|--------------------------|      #2
=|---9----10--10-12-10/10-9-|---9----10-9--------------|
=|-7---10-------------------|-7---10------9-10---------|
=|--------------------------|--------------------------|

=|-----------------------|--------------------------|
=|-----------------------|--------------------------|
=|-----------------------|--------------------------|
=|-----9---5-----9----12-|-----9---5-----4--2-------|  #3
=|---7---3-----7---10----|---7---3---3-2------------|
=|-0---------0-----------|-0------------------3>2-0-|

=|------------------------|--------------------|
=|------------------------|--------------------|
=|------------------------|--------------------|         #4
=|-------0>2--5-----4-----|---0>2--5-----7-9-9-|
=|-----2----3---3>2---2---|-2----3---3>5---7-7-|
=|-0--------------------0-|--------------------|

=|------------------------|------------|
=|------------------------|------------|
=|------------------------|------------|         #5
=|-------0>2--5-----4-----|---0>2--5-7-|
=|-----2----3---3>2---2---|-2----3---5-|
=|-0--------------------0-|------------|

=|-----------------------------
=|-----------------------------
=|-----------------------------             #6
=|---9-----------10----7-------
=|-7---10-9-7/7-----10---10-9-7
=|-----------------------------

=|-------------------
=|-------------------
=|-------------------             #7
=|-9-----------10-12-
=|---10-9-7/7--------
=|-------------------

=|
=|
=|
=|
=|-7/7-7-9-10-10/10-12-10-9-10-12-10-9-10>(9)>7     #8
=|

=|
=|
=|
=|
=|-7-9-10-9-7/7-9-7-5-7-9-7-5-7         #9
=|




#1 (x2),#2 (x2),#3 (x2),#4 ,#5 ,#6 ,#7 ,#8 ,#9 ,#2 (x2),#3
(x2),#1(x2),#4 ,#5 ,#3 .

Supplied by Alec Zalogin (alec@pop.isracom.net.il)

  Visit MetalTabs.com for more metal tablature

bottom separator

Contact Us | Privacy Policy | Disclaimer | Legal Notice
Copyright © 2001-2014 MetalTabs.com. All Rights Reserved.