top separator

Home

Forum

What's New

Submit a Tab

FAQ

Links

Contact Us

Link to Us

MuSpy.com

MetalTabs.com logo

Bands

0-9

A

B

C

D

E

F

G

H

I

J

K

L

M

N

O

P

Q

R

S

T

U

V

W

X

Y

Z

Search

What

Where
 

Manegarm - "I Evig Tid" Guitar Tab

Plain Text Version
More Manegarm Tabs

Hits: 6370
Rated: 4.33 out of 5 (6 votes)
Updated: 2003-12-28 08:41:30

 

By:

Darkenelf

sendpm.gif

email.gif

Important note
This tab is available online because we obtained explicit permission from Manegarm or their label.


#----------------------------------PLEASE NOTE---------------------------------#
#This file is the author's own work and represents their interpretation of the #
#song. You may only use this file for private study, scholarship, or research. #
#Unless specified otherwise, this is NOT an official tab from the band members.#
#------------------------------------------------------------------------------#

  Visit MetalTabs.com for more metal tablature
  
Band: Manegarm
Album: Dodsfard
Song: I Evig Tid
Email: northerland@yahoo.co.uk
Tabbed by: Martijn Wietsma
Tab Date: 19-11-2003

Standard E Tuning

riff A (guitar 1) (lead) (lead for guitar 2 is missing)
|-----------------------------------------------------------|
|-----------------------------------------------------------|
|---7p5h7-7p5h-------5h7-7-------7p5h7-7p5h-----------------|
|-5------------8p7h8-----------5------------8--5-7-7--------|
|-----------------------------------------------------------|
|-----------------------------------------------------------|
						(4x)

riff B (0:24)
|-----------------------------------------------------------|
|-----------------------------------------------------------|
|-----------------------------------------------------------|
|-----------------------------------------------88-7--------|
|-5-------5-------5-----5/6-----5-------5-------66-5--8p7---|
|-3--33---3--33---3--33-3/4-----3--33---3--33---------6p5---|
     xx      xx      xx            xx      xx	(2x)

repeat riff A 4x
repeat riff B 2x
repeat riff A 4x

riff C (1:08)
|-----------------------------------------------------------|
|-----------------------------------------------------------|
|-----------------------------------------------------------|
|-------2222------------------------------------------------|
|-5555--2222--3333--55-6-3----------------------------------|
|-3333--0000--1111--33-4-1----------------------------------|
						(4x)
riff D (1:20) (solo)
|-----------------------------------------------------------|
|-----------------------------------------------------------|
|--------------------3----5-3-------------------------------|
|-3/5-55-7-5--5h7-77---7------7--5\3/5----------------------|
|-----------------------------------------------------------|
|-----------------------------------------------------------|
						(2x)
repeat riff C+D 2x (1:38)

riff E (1:50)
|-----------------------------------------------------------|
|-----------------------------------------------------------|
|------------8888--5555-------------------------------------|
|-8888-8888--6666--3333-------------------------------------|
|-6666-6666-------------------------------------------------|
|-----------------------------------------------------------|
						(2x)
repeat riff A 4x

riff F (2:21) (ending riff)
|-----------------------------------------------------------|
|-----------------------------------------------------------|
|---------------------777-----------------------------------|
|-8-5h7-7---8-5h7-7---555-----------------------------------|
|-----------------------------------------------------------|
|-----------------------------------------------------------|

  Visit MetalTabs.com for more metal tablature

bottom separator

Contact Us | Privacy Policy | Disclaimer | Legal Notice
Copyright © 2001-2014 MetalTabs.com. All Rights Reserved.