top separator

Home

Forum

What's New

Submit a Tab

FAQ

Links

Contact Us

Link to Us

MuSpy.com

MetalTabs.com logo

Bands

0-9

A

B

C

D

E

F

G

H

I

J

K

L

M

N

O

P

Q

R

S

T

U

V

W

X

Y

Z

Search

What

Where
 

Asphyx - "Asphyx (Forgotten War)" Guitar Tab

Plain Text Version
More Asphyx Tabs

Hits: 3808
Rated: 3.00 out of 5 (1 vote)
Updated: 2003-12-28 08:33:28

 

By:

BestialWarrior

sendpm.gif

email.gif

Important note
This tab is available online because we obtained explicit permission from Asphyx or their label.


#----------------------------------PLEASE NOTE---------------------------------#
#This file is the author's own work and represents their interpretation of the #
#song. You may only use this file for private study, scholarship, or research. #
#Unless specified otherwise, this is NOT an official tab from the band members.#
#------------------------------------------------------------------------------#

  Visit MetalTabs.com for more metal tablature
  
Band:  (ASPHYX)
Album: (LAST ONE ON EARTH)
Song:  (ASPHYX(FORGOTTEN WAR).
Copyright (c)  (CENTURY MEDIA) (1992)
Version 1.0 - (11-14-03)

Transcribed By: (BestialWarrior)
Email:          (Bestialson2003@yahoo.com)


.  - palm mute           /  - slide up to
\  - slide down to       ~  - vibrato
h  - hammer on           b  - Bend
p  - pull off            Suffixes for bend
t  - tap                 f  - full bend    h - half bend
ph - pinched harmonic    q  - quarter bend t - tap bend
*  - see comment         ^  - Hold bend    r release bend
x  - Stuccatto           ~  - vibrato bend
,  - slight palm mute    () - ghost note, sustained note
"  - tremolo note        <> - Trill

Tunning :Dropped D.  Heavy Distortion!!
Riff#1. Slow.  Let chords and notes ring out.
|-------------------------------------------------------|
|-------------------------------------------------------|
|-------------------------------------------------------|
|-------------22-11-------------------------------------|
|2----------------------------2------------22/3-1/2-----|
|0----------------------------0---------------------2---|
Riff#2. As fast as possible!!Slight palm mute.(where indicated).     *(only play to here after playing twice)
|--------------------------------------------------------------------|--------------------|
|--------------------------------------------------------------------|--------------------|
|--------------------------------------------------------------------|--------------------|
|----------------------10---------------------9----------------------|--------------------|
|2---------------777777-----------------777777---------77778888666666|77778888------------|
|0000000000000000--------000000000000000-------00000000--------------|--------000000000000|
 ................        ...............       ........                      ............
Riff#3. Heavy!open notes are all palm muted...only chords sound out. *
                                                   *
|------------------------------------------------|-----------------------------------------------------|
|------------------------------------------------|-----------------------------------------------------|
|------------------------------------------------|-----------------------------------------------------|
|----------------------3----------------------543|------------------------3----------------------4/3-3-|
|--------------------451----------------------321|----------------------451----------------------2/1-1-|
|00-000-00-000-00-00023--00-000-00-000-00-000-321|-00-000-00-000-000-00023--00-000-00-000-00-000-2/1-1-|
     g      g      g           g      g      g     *   g      g   g   g         g      g      g
Play Riff #2 again before the this next one.
Riff#4.Fast(not as fast as Riff #2 though)Open D(notes)
|------------------------------------------|
|------------------------------------------|
|------------------------------------------|
|------------------------------------------|
|----------------5-4/3----------------3-4/5|
|00000000000000003-2/100000000000000001-2/3|
Riff#5. Heavy.
|--------------------------|-----------------|-----------------|
|--------------------------|-----------------|-----------------|
|--------------------------|-----------------|-----------------|
|2-5-4-2-3-2-5-4-2-3-2-5-4-|-----------------|-----------------|
|0-3-2-0-1-0-3-2-0-1-0-3-2-|3(bend half step)|2(bend half step)|
 .     .   .     .   .
Repeat Riff#4, THen Riff#5 ,and then Riff #1.Then this riff
Riff#6  Heavy!.
|------------------|
|------------------|Repeat Riff#2, then Riff#3.
|------------------|
|------------------|
|-4-4-4-4-4-4-44/5-|
|020202020202022/3-|

END
Note!  Hey! this is is my first Asphyx song.  It took me a good hour and a half
to tab, but I managed ok.  I just had some problems getting used to the
arrangements.  Other than that, all good.
Ok, where I have the asterisk(in riff#2),thats where you stop playing after
playing the whole riff twice.Its before you hit Riff #4.
You have to really listen to the tape to see what I'm talking about.  I'm going
to list the arrangements.  It should help. Any more questions
or comments, email me, etc.  This whole tape(cd) is heavy as hell!!!
Arrangement:Riff #1(2 times)
            Riff #2 (3 times)
            Riff #3 (2 times, then up to the asterisk(on the third time).
            Riff #2 (2 times, then up to the asterisk( on the third time).
            Riff #4 (3 times)
            Riff #5 (2 times)
            Riff #4 (3 times)
            Riff #5 (2 times)
            Riff #1 (2 times)
            Riff #6 ( 6 times)
            Riff #2 ( 3 times)
            Riff #3  (1 time)
           End...

  Visit MetalTabs.com for more metal tablature

bottom separator

Contact Us | Privacy Policy | Disclaimer | Legal Notice
Copyright © 2001-2014 MetalTabs.com. All Rights Reserved.