top separator

Home

Forum

What's New

Submit a Tab

FAQ

Links

Contact Us

Link to Us

MetalTabs.com logo

Bands

0-9

A

B

C

D

E

F

G

H

I

J

K

L

M

N

O

P

Q

R

S

T

U

V

W

X

Y

Z

Search

What

Where
 

My Dying Bride - "Into the Lake of Ghosts" Guitar Tab

Plain Text Version
More My Dying Bride Tabs

Hits: 5447
Rated: 3.80 out of 5 (5 votes)
Updated: 2003-12-28 08:05:32

 

By:

Father Death

sendpm.gif

email.gif

Important note
This tab is available online because we obtained explicit permission from My Dying Bride or their label.


#----------------------------------PLEASE NOTE---------------------------------#
#This file is the author's own work and represents their interpretation of the #
#song. You may only use this file for private study, scholarship, or research. #
#Unless specified otherwise, this is NOT an official tab from the band members.#
#------------------------------------------------------------------------------#

  Visit MetalTabs.com for more metal tablature
  
Band:  MY DYING BRIDE
Album: The Light at the End of the World
Song:  Into the Lake of Ghosts

Transcribed by:	Chris Humeniuk
Email:  father_death_666@hotmail.com

Tuning:	1/2 step down

Keys:
 / \ - slide
 ___ - palm mute
 < > - pinch harmonic
  x  - mute


INTRO:

|---------------------------------------|
|---------------------------------------|
|---------------------------------------|
|-/7--------7--7-5-------7-8--8-7-5--8--|
|------------------8-7-5----------------|
|---------------------------------------|

 (2)                              (3)
|-----------------------------|  |------------------------------------|
|-----------------------------|  |------------------------------------|
|-----------------------------|  |------------------------------------|
|-7--7-5-------7-8--8-7-5--8--|  |-/7-7-7-7--7-5-------7-8--8-7-5--8--|
|--------8-7-5----------------|  |---------------8-7-5----------------|
|-----------------------------|  |------------------------------------|


VERSE:

|-----------------------------|
|-----------------------------|
|-----------------------------|
|-8--7-5-------7-8--8-7-5--8--|
|--------8-7-5----------------|
|-----------------------------|


CHORUS:

|------------------------------------------------------------------
|------------------------------------------------------------------
|-5/7-----5/7-----8---------------5/7-----5/7-----8---------10-10\-
|-5/7-----5/7-----8---------------5/7-----5/7-----8---------10-10\-
|-3/5-5-5-3/5-5-5-6-6-6-6-6-8-8-8-3/5-5-5-3/5-5-5-6-6-6-6-6--8--8\-
|------------------------------------------------------------------
      ___     ___   _____________     ___     ___   _______

 ------------------------------------------------------------------|
 ------------------------------------------------------------------|
 -5/7-----5/7-----8---------------5/7-----5/7-----8-------<10>~----|
 -5/7-----5/7-----8---------------5/7-----5/7-----8----------------|
 -3/5-5-5-3/5-5-5-6-6-6-6-6-8-8-8-3/5-5-5-3/5-5-5-6-6-6-6----------|
 ------------------------------------------------------------------|
      ___     ___   _____________     ___     ___   _______


INTERLUDE:
(Gtr 1)
|-------------------------------------------------------------|
|-------------------------------------------------------------|
|-------------------------------------------------------------|
|-----------------------------------------------------------1-|
|----------3-4-3-1--------3-4-3----------3-4-3----------3-4---|
|-1-----------------------------0--------------1--------------|

(Gtr 2)
|-------------------------------------------------------------|
|-------------------------------------------------------------|
|-------------------------------------------------------------|
|-3-3-3----------3-3-3----------2-2-2----------3-3-3----------|
|-3-3-3----------1-1-1----------2-2-2----------3-3-3----------|
|-1-1-1-------------------------0-0-0----------1-1-1----------|
  _____          _____          _____          _____

(Gtr 2)
|-------------------------------------------------------------|
|-------------------------------------------------------------|
|-------------------------------------------------------------|
|-3--------------3--------------2--------------3--------------|
|-3--------------1--------------2--------------3--------------|
|-1-----------------------------0--------------1--------------|


OUTRO:
(Gtr 1)
|-------------------------------------------------------------|
|-------------------------------------------------------------|
|-------------------------------------------------------------|
|-3--------------3--------------2--------------3--------------|
|-x--------------1--------------2--------------1--------------|
|-1-----------------------------0--------------1--------------|

(Gtr 2)
|-------------------------------------------------------------|
|-------------------------------------------------------------|
|-------------------------------------------------------------|
|-/7-------------5/7------------------------------------------|
|-------------------------------7/9------------9\8------------|
|-------------------------------------------------------------| 2x

  Visit MetalTabs.com for more metal tablature

bottom separator

Contact Us | Privacy Policy | Disclaimer | Legal Notice
Copyright © 2001-2014 MetalTabs.com. All Rights Reserved.